Oops, an error
Loading. Please wait.
We have an official Dimension tab made by UG professional guitarists. Check out the tab »
×
2,624 views 3 this week
no commentswrite comment
1 2 3 4 5
x 4
add to favorites
×
Save as Personal and add changes to this tab that will be seen only by you. Learn more ›
×
You can save this tab as Personal to edit and correct it or add notes. All changes will be seen only by you. Learn more »
launch autoscroll
font size
0
reset
guitar tuner
backing track
0:00
0:00
edit
Autoscroll
slow
fast
+/-
esc
set tempo
stop
Author
-------------------------------------------------------------------------------
			     DIMENSION - Wolfmother
-------------------------------------------------------------------------------

Tabbed By : Kevin 

Tuning:Standard

i play on the higher frets because thats how its played live
and it makes things a lot easier but if u dont want to just
go one string higher and five frets lower for what i have

verse:
G|------------------------------------|   |-----------------------------------------|
D|------------------------------------|x3 |--------------------14-12----------------|
A|---------------------------------10-|   |--------------------------14-13-12-10----|
E|-12--12--12--12--12--12--0h10-12----|   |-12--12--12--12--12-------------------10-|

G|------------------------------------|
D|------------------------------------|x4
A|---------------------------------10-|
E|-12--12--12--12--12--12--0h10-12----|

G|-------------------------------------------------------------------------14-12----------------|
D|-------------------------------------------10----------------------------------14-13-12-10----|
A|-12-12-12-12-12-12-12-12-12-12-12-12-10-12----12-12-12-12-12-12-12-12-12-------------------10-|
E|----------------------------------------------------------------------------------------------|

pre-chorus:
G|-----------------------------------------------------------------------------|
D|-----------------------------------------------------------------------------|
A|-14-14-14-14-14-14-14-14-14-14-14-14-14-14-14-14-12-12-12-12-12-12-12-12-12\-|
E|-----------------------------------------------------------------------------|

chorus:
G|-------------------------------------------------------|
D|----------------------12-12-14-12----------------------|x2
A|-------10-11-12-13-14-------------14-13-12-11-10-------|
E|-10-12-------------------------------------------12-10-|

the last ten above carries over to the part below

G|---------------------|
D|---------------------|x4
A|---------------------|
E|-12------6-5------10-|

verse:
G|------------------|   |------------------------|
D|------------------|x3 |---14-12----------------|
A|---------------10-|   |---------14-13-12-10----|
E|-0--0--0h10-12----|   |-0-------------------10-|

G|------------------------------------|
D|------------------------------------|x4
A|---------------------------------10-|
E|-12--12--12--12--12--12--0h10-12----|

G|-------------------------------------------------------------------------14-12----------------|
D|-------------------------------------------10----------------------------------14-13-12-10----|
A|-12-12-12-12-12-12-12-12-12-12-12-12-10-12----12-12-12-12-12-12-12-12-12-------------------10-|
E|----------------------------------------------------------------------------------------------|

G|------------------------------------|
D|------------------------------------|x2
A|---------------------------------10-|
E|-12--12--12--12--12--12--0h10-12----|

pre-chorus:
G|-----------------------------------------------------------------------------|
D|-----------------------------------------------------------------------------|
A|-14-14-14-14-14-14-14-14-14-14-14-14-14-14-14-14-12-12-12-12-12-12-12-12-12\-|
E|-----------------------------------------------------------------------------|

chorus:
G|-------------------------------------------------------|
D|----------------------12-12-14-12----------------------|
A|-------10-11-12-13-14-------------14-13-12-11-10-------|
E|-10-12-------------------------------------------12-10-|

G|----------------------12-12-14-12----------------------|
D|-------10-11-12-13-14-------------14-13-12-11-10-------|
A|-10-12-------------------------------------------12----|
E|----------------------------------------------------10-|

ten carries over again

G|---------------------|
D|---------------------|x4
A|---------------------|
E|-12------6-5------10-|

break:
G|--------------------------------------------------------|
D|--------------------------------------------------------|
A|-10--10--10--10--10--10--10--10--12--12--12--12--12-----|
E|--------------------------------------------------------|
                                    hold last twelve
G|--------------------|
D|--------------------|x12
A|-----------------10-|
E|-12--12--0h10-12----|

verse:
G|-------------------------------------------------------------------------14-12----------------|
D|-------------------------------------------10----------------------------------14-13-12-10----|
A|-12-12-12-12-12-12-12-12-12-12-12-12-10-12----12-12-12-12-12-12-12-12-12-------------------10-|
E|----------------------------------------------------------------------------------------------|

G|------------------|   
D|------------------|x4
A|---------------10-|   
E|-0--0--0h10-12----| 

pre-chorus:
G|-----------------------------------------------------------------------------|
D|-----------------------------------------------------------------------------|
A|-14-14-14-14-14-14-14-14-14-14-14-14-14-14-14-14-12-12-12-12-12-12-12-12-12\-|
E|-----------------------------------------------------------------------------|

chorus:
G|-------------------------------------------------------|
D|----------------------12-12-14-12----------------------|
A|-------10-11-12-13-14-------------14-13-12-11-10-------|
E|-10-12-------------------------------------------12-10-|

G|--------------------11-11-13-11---------------------|
D|------9-10-11-12-13-------------13-12-11-10-9-------|
A|-9-11-----------------------------------------11----|
E|-------------------------------------------------10-|

outro:
G|------------------------------------|
D|------------------------------------|x4
A|---------------------------------10-|
E|-12--12--12--12--12--12--0h10-12----|

| /  slide up
| \  slide down
| h  hammer-on
| p  pull-off
| ~  vibrato
| +  harmonic
| x  Mute note
===============================================================================

            
            
Suggest correction
Creating personal tab
Creating personal tab
You can edit any tab online and save it as your Personal.

You can edit, replace or remove any tab part or add personal notes – all changes will be seen only by you.

Personal tabs can be accessed anytime from any device, even offline.
Learn more »
comments
print report bad tab
guest
You may want to rate the tab now too:
select rating
Wanna post a correction for this tab? Suggest correction