Oops, an error
Loading. Please wait.

Far Away solo tab

version 1
version 1

Solo

Whole song

Interactive

13,855 views 1 this week
4 commentsread comments
1 2 3 4 5
x 8
add to favorites
×
Save as Personal and add changes to this tab that will be seen only by you. Learn more ›
×
You can save this tab as Personal to edit and correct it or add notes. All changes will be seen only by you. Learn more »
launch autoscroll
font size
0
reset
how to read this tab
guitar tuner
edit
Autoscroll
slow
fast
+/-
esc
set tempo
stop
Author
This is off of Wolfmother's new album, "Cosmic Egg". Sorry
if it's off in some places. This is my very first tabbing so
if there are any flaws please let me know. Thanks.

e: --12h14p12----12--------------------------------------|
B: -----------14----14---12h14p12----12------------------|
G: -------------------------------13----13---11h13p11----|
D: ---------------------------------------------------14-| (x2)
A: ------------------------------------------------------|
E: ------------------------------------------------------|


e: ----------------------------------------------------|
B: --12h14p12----12------------------------------------|
G: -----------13----13---11h13p11----11----------11-13-|
D: -------------------------------14----14-11-14-------| (x2)
A: ----------------------------------------------------|
E: ----------------------------------------------------|

   (and again)
e: --12h14p12----12--------------------------------------|
B: -----------14----14---12h14p12----12------------------|
G: -------------------------------13----13---11h13p11----|
D: ---------------------------------------------------14-| (x2)
A: ------------------------------------------------------|
E: ------------------------------------------------------|


e: ----------------------------------------------------|
B: --12h14p12----12------------------------------------|
G: -----------13----13---11h13p11----11----------11-13-|
D: -------------------------------14----14-11-14-------| (x2)
A: ----------------------------------------------------|
E: ----------------------------------------------------|

I'm sorry I don't know the last bending chord. This is all I've
figured out so far. If you know the chord please tell me. Thanks!

            
            
Suggest correction
Creating personal tab
Creating personal tab
You can edit any tab online and save it as your Personal.

You can edit, replace or remove any tab part or add personal notes – all changes will be seen only by you.

Personal tabs can be accessed anytime from any device, even offline.
Learn more »
comments
print report bad tab
4 comments total. Showing first comments.
+1 reply
Jtang 51 Dec 02, 2009 05:05 PM

i find it easier like this...

e: --12h14p12----12--------------------------------------|
B: -----------14----14---12h14p12----12------------------|
G: -------------------------------13----13---11h13p11--9-|
D: ------------------------------------------------------| (x2)
A: ------------------------------------------------------|
E: ------------------------------------------------------|

e: ------------------------------------------------------|
B: --12h14p12----12--------------------------------------|
G: -----------13----13---11h13p11--9-11-9---------9--11--|
D: ------------------------------------------9--11-------| (x2)
A: ------------------------------------------------------|
E: ------------------------------------------------------|

0 reply
madi719 20 Feb 24, 2010 10:19 AM

You got most of it, there's just one part I disagree with:

e: ----------------------------------------------------|
B: --12h14p12----12------------------------------------|
G: -----------13----13---11h13p11----11----------11-13-|
D: -------------------------------14----14-11-14-------|
A: ----------------------------------------------------|
E: ----------------------------------------------------|

should be this
e: ----------------------------------------------------|
B: --12h14p12----12------------------------------------|
G: -----------13----13---11h13p11----11-------------11-|
D: -------------------------------14----14----11-14----|
A: ----------------------------------------14----------|
E: ----------------------------------------------------|

At the end, bend that last F# up.

0 reply
Matthieü 41 Jun 01, 2010 12:17 PM

awesome tab!

guest
You may want to rate the tab now too:
select rating
Wanna post a correction for this tab? Suggest correction