Oops, an error
Loading. Please wait.

Love Train tab

version 2
version 2

Whole song

Interactive

4,382 views 1 this week
10 commentsread comments
1 2 3 4 5
x 6
add to favorites
×
Save as Personal and add changes to this tab that will be seen only by you. Learn more ›
×
You can save this tab as Personal to edit and correct it or add notes. All changes will be seen only by you. Learn more »
launch autoscroll
font size
0
reset
how to read this tab
guitar tuner
edit
Autoscroll
slow
fast
+/-
esc
set tempo
stop
Difficulty
Intro:
E|-----------------------------------------------------------------------------|
B|-----------------------------------------------------------------------------|
G|-----------------------------------------------------------------------------|
D|------10---10----------------------------------------------------------------|
A|------10---10--------10-----10----9p7----------------7b----------------------|
E|-------8-----8-----------------------------------9---------------------------|    x4

Verse
E|----------------------------------------|
B|----------------------------------------|
G|----------------------------------------|
D|------10--------------------------------|
A|------10-------~hold~-------------------|
E|-------8--------------------------------|

E|-------------------------------------------------------------------------------|
B|-------------------------------------------------------------------------------|
G|-------------------------------------------------------------------------------|
D|------10---10------------------------------------------------------------------|
A|------10---10--------10-----10----9p7----------------7b------------------------|
E|-------8----8-----------------------------------9---------------(9)------------|    x4


Chorus:

E|--------------------------------------------------------------|
B|--------------------------------------------------------------|
G|--------------------------------------------------------------|
D|---------12--------13------------12---------------------------|
A|---------12--------13------------12---------------------------|
E|---------10--------11------------10---------------------------|

I saw different places and different places.

E|---------------------------------------------------------------------------|
B|---------------------------------------------------------------------------|
G|---------------------------------------------------------------------------|
D|------10---10--------------------------------------------------------------|
A|------10---10--------10-----10----9p7----------------7b--------------------|
E|-------8----8-----------------------------------9---------------(9)--------|


E|-------------------------------------------------------------------------|
B|-------------------------------------------------------------------------|
G|-------------------------------------------------------------------------|
D|------10---10------------------------------------------------------------|
A|------10---10--------10-----10----9p7----------------7b------------------|
E|-------8----8----------------------------------9--------------(9)--------|   x2

Verse 2:


E|----------------------------------------|
B|----------------------------------------|
G|----------------------------------------|
D|------10--------------------------------|
A|------10-------~hold~-------------------|
E|-------8--------------------------------|

E|---------------------------------------------------------------------------|
B|---------------------------------------------------------------------------|
G|---------------------------------------------------------------------------|
D|------10---10--------------------------------------------------------------|
A|------10---10--------10-----10----9p7----------------7b--------------------|
E|-------8----8-----------------------------------9---------------(9)--------|    x4

Chorus:
E|--------------------------------------------------------------|
B|--------------------------------------------------------------|
G|--------------------------------------------------------------|
D|---------12--------13------------12---------------------------|
A|---------12--------13------------12---------------------------|
E|---------10--------11------------10---------------------------|

I saw different places and different places.

E|---------------------------------------------------------------------------|
B|---------------------------------------------------------------------------|
G|---------------------------------------------------------------------------|
D|------10---10--------------------------------------------------------------|
A|------10---10--------10-----10----9p7----------------7b--------------------|
E|-------8----8-----------------------------------9---------------(9)--------|


E|--------------------------------------------------------------------------|
B|--------------------------------------------------------------------------|
G|--------------------------------------------------------------------------|
D|------10---10-------------------------------------------------------------|
A|------10---10--------10-----10----9p7----------------7b-------------------|
E|-------8----8-----------------------------------9--------------(9)--------|   x1

Solo:


E|--------------------------------------------------------------|
B|--------------------------------------------------------------|
G|--------------------------------8---10b---10p8----------------|
D|----------------------8h10--------------------------10--------|
A|--------------8h10--------------------------------------------|
E|-------8h10---------------------------------------------------|

E|----------------------------------------------------------------------|
B|----------------------------------------------------------------------|
G|-------------------8----------8---------8-----------------------------|
D|-----8----10-----------10-------10----------10------8-----10----------|
A|----------------------------------------------------------------------|
E|----------------------------------------------------------------------|


E|-------------------------------------------------------------------------|
B|-------------------------------------------------------------------------|
G|--------------------------------------------8----------------------------|
D|------8h10--------8------------8-----10----10----8-----------------------|
A|---------------------------10---------------------------10----8h10-------|
E|-------------------------------------------------------------------------|


E|---------------------------------------------------------------------------|
B|---------------------------------------------------------------------------|
G|------------------------------10--------------------10---------------------|
D|-----------10h12---10----------12~~~~---12---------12b------10-------------|
A|----10s12~~~----------12---------------------------------------------------|
E|---------------------------------------------------------------------------|

E|--------------------------------------------------------------------------|
B|--------------------------------------------------------------------------|
G|--------------------------------------------------------------------------|
D|--10h12----10-----10--------------10h12----10-----10---12b~---------------|
A|-----------------12-------12~~---10h12----------12------------------------|
E|--------------------------------------------------------------------------|


The second solo is played by a keyboard. If you really want to get the same kind of 
you can take out the input jack of your guitar and keep touching it to your bridge of the 
while controlling it with the wah-wah pedal.

Chorus:
E|--------------------------------------------------------------|
B|--------------------------------------------------------------|
G|--------------------------------------------------------------|
D|---------12--------13------------12---------------------------|
A|---------12--------13------------12---------------------------|
E|---------10--------11------------10---------------------------|

I saw different places and different places.

E|--------------------------------------------------------------------------|
B|--------------------------------------------------------------------------|
G|--------------------------------------------------------------------------|
D|------10---10-------------------------------------------------------------|
A|------10---10--------10-----10----9p7----------------7b-------------------|
E|-------8----8-----------------------------------9---------------(9)-------|

E|--------------------------------------------------------------------------|
B|--------------------------------------------------------------------------|
G|--------------------------------------------------------------------------|
D|------10---10-------------------------------------------------------------|
A|------10---10--------10-----10----9p7----------------7b-------------------|
E|-------8----8-----------------------------------9--------------(9)--------|   x2

E|------------|
B|------------|
G|------------|
D|--10--------|
A|--10--------|
E|---8--------|   Love…Love….Love
Outro
E|--------------------------------------------------------------------|
B|--------------------------------------------------------------------|
G|--------------------------------8---10b~~~---10p8-------------------|
D|----------------------8h10----------------------------10------------|
A|--------------8h10--------------------------------------------------|
E|-------8h10---------------------------------------------------------|

E|---------------------------------------------------------------|
B|---------------------------------------------------------------|
G|----8-----------------------------8-------8-------8------------|
D|-------10------8h10---8-----------10------10------10-----------|
A|------------------------------10-------------------------------|
E|---------------------------------------------------------------|

E|---------------------------------------------------------------|
B|---------------10--------------------------------10------------|
G|------12b----------12----12b-12p10---------------12b-----------|
D|--------------------------------------------12-----------------|
A|---------------------------------------------------------------|
E|---------------------------------------------------------------|

E|------------------------|
B|------------------------|
G|------------------------|
D|------10---10-----------|
A|------10---10-----------|
E|-------8----8-----------|

            
            
Suggest correction
Creating personal tab
Creating personal tab
You can edit any tab online and save it as your Personal.

You can edit, replace or remove any tab part or add personal notes – all changes will be seen only by you.

Personal tabs can be accessed anytime from any device, even offline.
Learn more »
comments
print report bad tab
10 comments total. Showing first comments.
0 reply
GYRNirvana90 10 Jul 02, 2006 04:53 PM

Question.. on the 4th and 5th bars or the first solo... was the slight missallignment of the 2 note cords intentional and meant to be played at seperate times, or is it just one note and the alignment is just slightly off? thanks

0 reply
dondude 175 Jul 04, 2006 06:53 PM

No thats my fault it was aligned bad. It was my first tab and I didn't realize that when you go to submit your tab they give you a premade template. Sorry for the mix up.

0 reply
nadroJ22 170 Jul 11, 2006 08:35 PM

Actually, this is the right riff..

E|-----------------------------------------------------------------------------|
B|-----------------------------------------------------------------------------|
G|-----------------------------------------------------------------------------|
D|------10---10----------------------------------------------------------------|
A|------10---10--------10-----10----8p6----------------6-----------------------|
E|-------8-----8-----------------------------------8--------8------------------|

guest
Wanna post a correction for this tab? Suggest correction