Oops, an error
Loading. Please wait.

New Moon Rising bass

version 1
version 1

Whole song

Interactive

10,164 views 1 this week
3 commentsread comments
1 2 3 4 5
x 4
add to favorites
×
Save as Personal and add changes to this tab that will be seen only by you. Learn more ›
×
You can save this tab as Personal to edit and correct it or add notes. All changes will be seen only by you. Learn more »
launch autoscroll
font size
0
reset
guitar tuner
backing track
0:00
0:00
edit
Autoscroll
slow
fast
+/-
esc
set tempo
stop
Author
Difficulty
New Moon Rising
Wolfmother

This tab isnt perfect, but it was the best my friend and I could do. 
This is our first tab, so dont be too harsh


Intro
G|-------------------------|
D|-------------------------|
A|----------5-7b-5---------|
E|------5-7--------7-5-7-7-|

G|-------------------------|
D|-------------------------|
A|----------5-7b-5---------|
E|------5-7--------7-5-7-7-|

G|-------------------------|
D|-------------------------|
A|----------5-7b-5-----5---|
E|------5-7--------7-5---7-|

G|-----------------------------|
D|-----------------------------|
A|----------5-7b-5-------------|
E|------5-7--------7-5-7-7-5-7-|

Verse
G|-----------------------------|
D|-----------------------------|
A|-----------------------------|
E|--5-7--------5-7--------5-7--|


Chorus/ Main Riff

G|---------------------------|     \
D|---9-7---------------------|      |
A|-------9--7h9p7-5-7-5------|      |
E|----------------------7-7--|      |
                                   > X2
G|-----------------7-9b---7---|     |
D|---9-7-------7-9----------9-|     |
A|-------9-7-9----------------|     |
E|----------------------------|    /

Chorus:

G|------7-7----7-9----7-9-11--14-16-----|
D|-9-7-9-9--7-9-9--7-9------------------|
A|--------------------------------------| X2
E|--------------------------------------|

Verse
G|-----------------------------|
D|-----------------------------|
A|-----------------------------|
E|--5-7--------5-7--------5-7--|

Chorus/ Main Riff

G|---------------------------|     \
D|---9-7---------------------|      |
A|-------9--7h9p7-5-7-5------|      |
E|----------------------7-7--|      |
                                   > X2
G|-----------------7-9b---7---|     |
D|---9-7-------7-9----------9-|     |
A|-------9-7-9----------------|     |
E|----------------------------|    /

Chorus:

G|------7-7----7-9----7-9-11--14-16-----|
D|-9-7-9-9--7-9-9--7-9------------------|
A|--------------------------------------| X4
E|--------------------------------------|

Bridge:

G|-------------------------|
D|-------------------------|
A|----------5-7b-5---------|
E|------5-7--------7-5-7-7-|

G|-------------------------|
D|-------------------------|
A|----------5-7b-5---------|
E|------5-7--------7-5-7-7-|

G|-------------------------|
D|-------------------------|
A|----------5-7b-5-----5---|
E|------5-7--------7-5---7-|

G|-----------------------------|
D|-----------------------------|
A|----------5-7b-5-------------|
E|------5-7--------7-5-7-7-5-7-|

Play Quietly

G|-------------------------|     
D|-------------------------|   
A|----------5-7b-5---------|	 
E|------5-7--------7-5-7-7-|      

G|-------------------------|
D|-------------------------|
A|----------5-7b-5---------|
E|------5-7--------7-5-7-7-|

G|-------------------------|
D|-------------------------|
A|----------5-7b-5-----5---|
E|------5-7--------7-5---7-|

G|-----------------------------|
D|-----------------------------|
A|----------5-7b-5-------------|
E|------5-7--------7-5-7-7-5-7-|

Outro

G|---------------------------|     
D|---9-7---------------------|     
A|-------9--7h9p7-5-7-5------|     
E|----------------------7-7--|  
    
G|-----------------7-9b---7---|
D|---9-7-------7-9----------9-|    
A|-------9-7-9----------------|    
E|----------------------------|

G|------7-7----7-9----7-9-11--14-16-----|
D|-9-7-9-9--7-9-9--7-9------------------|
A|--------------------------------------| X2
E|--------------------------------------|

G|-----------------7-9b---7---|
D|---9-7-------7-9----------9-|    
A|-------9-7-9----------------|    
E|----------------------------|

Thanks

            
            
Suggest correction
Creating personal tab
Creating personal tab
You can edit any tab online and save it as your Personal.

You can edit, replace or remove any tab part or add personal notes – all changes will be seen only by you.

Personal tabs can be accessed anytime from any device, even offline.
Learn more »
comments
print report bad tab
3 comments total.
+1 reply
BoonMcNougat 97 Nov 17, 2009 03:37 AM

Pretty sure this is spot on. Only thing I can see even slightly wrong is the lack of a slide for the verse, but that's being extremely fussy. Good job man!

0 reply
bass.is.evan 10 Feb 02, 2010 01:38 PM

dude this is a gnarly tab. i cant see anything wrong with it. long live Wolfmother!!!

+2 reply
arrell 229 Jul 02, 2010 02:36 AM

3rd bar of intro.
G|---------------------------|
D|---------------------------|
A|----------5-7b-5-------5---|
E|------5-7--------7-5-7---7-|

guest
You may want to rate the tab now too:
select rating
Wanna post a correction for this tab? Suggest correction