Oops, an error
Loading. Please wait.

Pyramid tab

version 2
version 2

Whole song

Interactive

19,942 views 18 this week
5 commentsread comments
1 2 3 4 5
x 17
add to favorites
×
Save as Personal and add changes to this tab that will be seen only by you. Learn more ›
×
You can save this tab as Personal to edit and correct it or add notes. All changes will be seen only by you. Learn more »
launch autoscroll
font size
0
reset
how to read this tab
guitar tuner
edit
Autoscroll
slow
fast
+/-
esc
set tempo
stop
Author
Difficulty
Intro

e:------------------------------------------|
B:------------------------------------------|
G:------------------------------------------|
D:------------------------------------------|
A:------------------------------------------|
E:--3~~~-(keep vibrating)-------------------|

Bass Intro
|------------------------------------------|
|------------------------------------------|
|------------------------------------------|
|-3-p0--3-p0--3-p0--3-p0--3-p0--3-p0--3/6~-|


Guitar (with vocals)

|--13-11-10~----13-11-10-------------------|
|------------------------13-11-10-11-10----|
|------------------------------------------|
|------------------------------------------|
|------------------------------------------|
|------------------------------------------|


|------------------------------------------|
|--10-11-13-----10-11-13-------------------|
|------------------------------------------| X2
|------------------------------------------|
|------------------------------------------|
|------------------------------------------|


|--13-11-10~----13-11-10-------------------|
|------------------------13-11-10-11-10\---|
|------------------------------------------|
|------------------------------------------|
|------------------------------------------|
|------------------------------------------|

Pre Verse

|------------------------------------------|
|------------------------------------------|
|------------------------------------------|
|------------------------------------------| X4
|------------------------------------------|
|------------------------------------------|
|-3-p0--3-p0--3-p0--3-p0--3-p0--3-p0--3/6b-|


During verse theres no guitar, just bass

|------------------------------------------|
|------------------------------------------|
|------------------------------------------|
|------------------------------------------| X2
|------------------------------------------|
|------------------------------------------|
|-3-p0--3-p0--3-p0--3-p0--3-p0--3-p0--3/6~-|


|------------------------------------------|
|------------------------------------------|
|------------------------------------------|
|------------------------------------------| X4
|------------------------------------------|
|---------------------------------------6b-|


|--13-11-10~----13-11-10-------------------|
|------------------------13-11-10-11-10----|
|------------------------------------------|
|------------------------------------------|
|------------------------------------------|
|------------------------------------------|


|------------------------------------------|
|--10-11-13-----10-11-13-------------------|
|------------------------------------------| X2
|------------------------------------------|
|------------------------------------------|
|------------------------------------------|


|--13-11-10~----13-11-10-------------------|
|------------------------13-11-10-11-10\---|
|------------------------------------------|
|------------------------------------------|
|------------------------------------------|
|------------------------------------------|


|--------------------------------------------|
|--------------------------------------------|
|--------------------------------------------|
|--------------------------------------------| X4
|-------------------------------------3p1--1-|
|-3-p0--3-p0--3-p0--3-p0--3-p0--3-p0-----3---|

|--------------------------------------------|
|--------------------------------------------|
|--------------------------------------------|
|--------------------------------------------|
|------------------------------10p8----8-----|
|-10--10--10--10--10--10--10--------10-------|


|--------------------------------------------|
|--------------------------------------------|
|--------------------------------------------|
|--------------------------------------------|
|----------------10p8----8-------------------|
|-8---8---8---8-------10---10-8-10-8-6-8-6-5-|


|--------------------------------------------|
|--------------------------------------------|
|--------------------------------------------|
|--5-----------------3-----------------------| X2
|--5-----------------3-----------------------|
|--3-(let ring)------1-(let ring)------------|


|--------------------------------------------|
|--------------------------------------------|
|--------------------------------------------|
|--8-----------------10----------------------|
|--8-----------------10----------------------|
|--6-(let ring)------8--(let ring)-----------|


Solo
|------------------------------------------------------------|
|--------------------------------------------------------6---|
|-------3---3--5--7--7—7\---5\3----------------3--5--7-------|
|-5-3h5---5-------------\5------5--3-----3--5----------------|
|-------------------------------------5----------------------|
|------------------------------------------------------------|


|-----6-----6-----6-----6-----6-----6-----6------6--8--6-----|
|-6h8---6h8---6h8---6h8---6h8---6h8---6h8----6h8----------8--|
|------------------------------------------------------------|
|------------------------------------------------------------|
|------------------------------------------------------------|
|------------------------------------------------------------|


|-6----------------------------------------------------------|
|----8--6--8--6-----6----------------------------------------|
|----------------7-----7--5--7--5--3--5--3-----3-----------3-|
|-------------------------------------------5-----5--3--5----|
|------------------------------------------------------------|
|------------------------------------------------------------|


|------------------------------------------------8--10---10--|
|------------------------------------------6--8--------------|
|-5—7----bf7>------p5-------------3--5--7--------------------|
|---------------------5--3—-3--5-----------------------------|
|------------------------------------------------------------|
|------------------------------------------------------------|


|-10p8p6---------bh10----------------------------------------|
|---------8--11----------------------------------------------|
|------------------------------------------------------------|
|------------------------------------------------------------|
|------------------------------------------------------------|
|------------------------------------------------------------|


then back to intro riff for another verse

Outro


|--13-11-10~----13-11-10-------------------|
|------------------------13-11-10-11\------|
|------------------------------------------|
|------------------------------------------|
|------------------------------------------|
|------------------------------------------|


|--------------------------------------------|
|--------------------------------------------|
|--------------------------------------------|
|--------------------------------------------| X4
|-------------------------------------3p1--1-|
|-3-p0--3-p0--3-p0--3-p0--3-p0--3-p0-----3---|


|--------------------------------------------|
|--------------------------------------------|
|--------------------------------------------|
|--------------------------------------------|
|------------------------------10p8----8-----|
|-10--10--10--10--10--10--10--------10-------|


|------------------------------------------------------------------------|
|------------------------------------------------------------------------|
|------------------------------------------------------------------------|
|-----------5p3---3---------------5p3---3--------------5p3---3-----------|
|3--3--3--3-----5---5-3-5-3--3--------5---5-3-5-3--3-------5---5-3-5-3---|
|---------------------------6-6-5-----------------6-6-5----------------6-|


|--------------------------------------------|
|--------------------------------------------|
|--------------------------------------------|
|----5---------------------------------------|
|----5---------------------------------------|
|----3---------------------------------------|

That’s it!! Have fun! :)
The solo is the only one on the net I can find so if there’s any problems with it email 
squid_rat_3000@hotmail.com

To get the rhythm for the song play along with the song.

            
            
Suggest correction
Creating personal tab
Creating personal tab
You can edit any tab online and save it as your Personal.

You can edit, replace or remove any tab part or add personal notes – all changes will be seen only by you.

Personal tabs can be accessed anytime from any device, even offline.
Learn more »
comments
print report bad tab
5 comments total. Showing first comments.
0 reply
Albundi69 10 Mar 22, 2007 03:43 PM

shits good man good job. i think the solo was good; i was playin with the band.

0 reply
guitarboy291 10 Jun 26, 2007 03:28 PM

ur missing 2 of the guitar parts, there is a guitar part in the verse, just not the 1st verse, and u didnt put in the guitar part b4 the verse. they shuld b like this

pre-verse:
e|---------|
B|---------|
G|---------|
D|-5-----8-|
A|-5(x8)-8-|
E|-3-----6-|

Everything but 1st verse: (i dont kno if they actaully slide off the A# chord but it sounds good)
e|----|
B|----|
G|----|
D|-8\-|
A|-8\-|
E|-6\-|

besides that stuff, the tab was great

0 reply
droesj 10 Jun 21, 2008 02:45 AM

good tab, very nice indeed,
solo sounds good but wth is bh?..
a sort of bend or what?..

guest
You may want to rate the tab now too:
select rating
Wanna post a correction for this tab? Suggest correction