Oops, an error
Loading. Please wait.

Tales From The Forest Of Gnomes bass

version 1
version 1

Whole song

Interactive

2,561 views 3 this week
no commentswrite comment
1 2 3 4 5
x 3
add to favorites
×
Save as Personal and add changes to this tab that will be seen only by you. Learn more ›
×
You can save this tab as Personal to edit and correct it or add notes. All changes will be seen only by you. Learn more »
launch autoscroll
font size
0
reset
guitar tuner
edit
Autoscroll
slow
fast
+/-
esc
set tempo
stop
Author
Difficulty
Tales From the Forest of Gnomes by Wolfmother - EADG

Intro
G-----------------------------|
D-----------------------------|
A------------------5----------|
E-5--------3----------------5-|

Verse
G--------------------------------------------------------|
D------------------------17-16-14------------------------|
A-------16-17-19-17---------------17------9-10-12-10-----|x2
E-//17---------------15---------------10-------------5---|

Interlude
G--------------------------------------|
D--------------------------------------|
A-3~~------2~~------5~~//////12~~------|x3
E--------------------------------------|

Verse x 2

Chorus
G-----------------------------|
D-----------------------------|
A------------------5----------|x4
E-5--------3----------------5-|

Interlude x 3
Verse x 2
Chorus  x 4

Outro
G--------------------------------------|
D--------------------------------------|
A-3~~------2~~------5~~----------------|x3
E----------------------------5~~-------|

            
            
Suggest correction
Creating personal tab
Creating personal tab
You can edit any tab online and save it as your Personal.

You can edit, replace or remove any tab part or add personal notes – all changes will be seen only by you.

Personal tabs can be accessed anytime from any device, even offline.
Learn more »
Give kudos to tab author, rate the tab!
1 2 3 4 5
comments
print report bad tab
guest
You may want to rate the tab now too:
select rating
Wanna post a correction for this tab? Suggest correction