Oops, an error
Loading. Please wait.

Tales From The Forest Of Gnomes bass

version 2
version 2

Whole song

Interactive

847 views 1 this week
1 commentread comment
1 2 3 4 5
3 more votes to show rating
add to favorites
×
Save as Personal and add changes to this tab that will be seen only by you. Learn more ›
×
You can save this tab as Personal to edit and correct it or add notes. All changes will be seen only by you. Learn more »
launch autoscroll
font size
0
reset
guitar tuner
edit
Autoscroll
slow
fast
+/-
esc
set tempo
stop
Author
INTRO
G||------------------------------------------------------------------||
D||------------------------------------------------------------------||
A||-------------------------------------17---------------------------||
E||--17----------------15----------------------------------17--------||

Verse
G||---------------------------------------------------------------||
D||----------------------------------------16-17-16--14---------O-||
A||---16-17-16--14-------14-15-14--12---17----------------------O-|| X2
E||--/17----------------15-----------------------------17---Rest--||

Bridge(organ part)
G||--------------------------------||
D||-2~----1~----0~-----------------||
A||-------------------0~-----------||
E||--------------------------------|| x3

Verse
G||---------------------------------------------------------------||
D||----------------------------------------16-17-16--14---------O-||
A||---16-17-16--14-------14-15-14--12---17----------------------O-|| X2
E||--/17----------------15-----------------------------17---Rest--||

Chorus
G||-----------------------------------------------------------------||
D||-----------------------------------------------------------------||
A||-----------------------------5--rest-----------------------------||
E||-----5--rest-------3--rest---------------------5--rest-----------||

G||-----------------------------------------||
D||-O-------------------------------------O-||
A||-O-----------------5-5-5-5-------------O-||X3
E||---5-5-5-5-3-3-3-3---------5-5-5-5-------||

Bridge (organ part) 
G||--------------------------------||
D||-2~----1~----0~-----------------||
A||-------------------0~-----------||
E||--------------------------------|| x3

Verse
G||---------------------------------------------------------------||
D||----------------------------------------16-17-16--14---------O-||
A||---16-17-16--14-------14-15-14--12---17----------------------O-|| X2
E||--/17----------------15-----------------------------17---Rest--||

Chorus
G||-----------------------------------------------------------------||
D||-----------------------------------------------------------------||
A||-----------------------------5--rest-----------------------------||
E||-----5--rest-------3--rest---------------------5--rest-----------||

G||-----------------------------------------||
D||-O-------------------------------------O-||
A||-O-----------------5-5-5-5-------------O-||X3
E||---5-5-5-5-3-3-3-3---------5-5-5-5-------||

Bridge/Outro (organ part) 
G||--------------------------------||
D||-2~----1~----0~-----------------||
A||-------------------0~-----------||
E||--------------------------------|| x3


            
            
Suggest correction
Creating personal tab
Creating personal tab
You can edit any tab online and save it as your Personal.

You can edit, replace or remove any tab part or add personal notes – all changes will be seen only by you.

Personal tabs can be accessed anytime from any device, even offline.
Learn more »
Give kudos to tab author, rate the tab!
1 2 3 4 5
comments
print report bad tab
1 comment total.
0 reply
Jag Black 10 Jun 18, 2009 02:04 PM

Well that other tab is written terribly but at least this one I can just count 12 frets lower and have the right sound xD

guest
You may want to rate the tab now too:
select rating
Wanna post a correction for this tab? Suggest correction