Oops, an error
Loading. Please wait.

White Unicorn tab

version 5
version 5

Whole song

Interactive

2,732 views 1 this week
no commentswrite comment
1 2 3 4 5
x 4
add to favorites
×
Save as Personal and add changes to this tab that will be seen only by you. Learn more ›
×
You can save this tab as Personal to edit and correct it or add notes. All changes will be seen only by you. Learn more »
launch autoscroll
font size
0
reset
how to read this tab
guitar tuner
backing track
0:00
0:00
edit
Autoscroll
slow
fast
+/-
esc
set tempo
stop
Author
Difficulty
Wolfmother
White Unicorn

 

|-14-14-14-------12-12-12------7-9-----2-2-3-----------------|
|-15-15-15-------13-13-13------8-10----3-3-3-----------------|
|-14-14-14-------12-12-12------7-9-----2-2-2-----------------|
|------------------------------------------------------------|
|------------------------------------------------------------|
|------------------------------------------------------------|



        
|-14-14-14-------12-12-12------7-9-----2-2-3-----------------|
|-15-15-15-------13-13-13------8-10----3-3-3-----------------|
|-14-14-14-------12-12-12------7-9-----2-2-2-----------------|
|------------------------------------------------------------|
|------------------------------------------------------------|
|------------------------------------------------------------|



         Have you been to the Car-Ni--Val
|-14-14-14-------12-12-12------7-9-----2-2-3-----------------|
|-15-15-15-------13-13-13------8-10----3-3-3-----------------|
|-14-14-14-------12-12-12------7-9-----2-2-2-----------------|
|------------------------------------------------------------|
|------------------------------------------------------------|
|------------------------------------------------------------|



         I would like to     see you
|-14-14-14-------12-12-12------7-9-----2-2-3-----------------|
|-15-15-15-------13-13-13------8-10----3-3-3-----------------|
|-14-14-14-------12-12-12------7-9-----2-2-2-----------------|
|------------------------------------------------------------|
|------------------------------------------------------------|
|------------------------------------------------------------|



         Theres a whole lot of people there
|-14-14-14-------12-12-12------7-9-----2-2-3-----------------|
|-15-15-15-------13-13-13------8-10----3-3-3-----------------|
|-14-14-14-------12-12-12------7-9-----2-2-2-----------------|
|------------------------------------------------------------|
|------------------------------------------------------------|
|------------------------------------------------------------|



         Who would like     to be   you------
|-14-14-14-------12-12-12------7-9-----2-2-3-----------------|
|-15-15-15-------13-13-13------8-10----3-3-3-----------------|
|-14-14-14-------12-12-12------7-9-----2-2-2-----------------|
|------------------------------------------------------------|
|------------------------------------------------------------|
|------------------------------------------------------------|



        With the   white      Un---i---corn
|-14-14-14-------12-12-12------7-9-----2-2-3-----------------|
|-15-15-15-------13-13-13------8-10----3-3-3-----------------|
|-14-14-14-------12-12-12------7-9-----2-2-2-----------------|
|------------------------------------------------------------|
|------------------------------------------------------------|
|------------------------------------------------------------|



         Across her Shouler----------------
|-14-14-14-------12-12-12------7-9-----2-2-3-----------------|
|-15-15-15-------13-13-13------8-10----3-3-3-----------------|
|-14-14-14-------12-12-12------7-9-----2-2-2-----------------|
|------------------------------------------------------------|
|------------------------------------------------------------|
|------------------------------------------------------------|



        Makes you think that she might of been
|-14-14-14-------12-12-12------7-9-----2-2-3-----------------|
|-15-15-15-------13-13-13------8-10----3-3-3-----------------|
|-14-14-14-------12-12-12------7-9-----2-2-2-----------------|
|------------------------------------------------------------|
|------------------------------------------------------------|
|------------------------------------------------------------|



         Someone whos older-----------------
|-14-14-14-------12-12-12------7-9-----2-2-3-----------------|
|-15-15-15-------13-13-13------8-10----3-3-3-----------------|
|-14-14-14-------12-12-12------7-9-----2-2-2-----------------|
|------------------------------------------------------------|
|------------------------------------------------------------|
|------------------------------------------------------------|

(High distortion)

      Oh-----Its   on your eyes
|------------------------------------------------------------|
|------------------------------------------------------------|
|------------------------------------------------------------|
|-12-12----15-15---10-10-10-12-12--10------------------------|
|-12-12----15-15----8--8--8-12-12---8------------------------|
|-10-10----13-13----8--8--8-10-12---8------------------------|



      With a drink From her wine
|------------------------------------------------------------|
|------------------------------------------------------------|
|------------------------------------------------------------|
|-12-12----15-15---10-10-10-12-12--10------------------------|
|-12-12----15-15----8--8--8-12-12---8------------------------|
|-10-10----13-13----8--8--8-10-12---8------------------------|



    But we drank for a seventh time
|------------------------------------------------------------|
|------------------------------------------------------------|
|------------------------------------------------------------|
|-12-12----15-15---10-10-10-12-12--10------------------------|
|-12-12----15-15----8--8--8-12-12---8------------------------|
|-10-10----13-13----8--8--8-10-12---8------------------------|



      Now we live in another time
|------------------------------------------------------------|
|------------------------------------------------------------|
|------------------------------------------------------------|
|-12-12----15-15---10-10-10-12-12--10------------------------|
|-12-12----15-15----8--8--8-12-12---8------------------------|
|-10-10----13-13----8--8--8-10-12---8------------------------|



        We could live together........
|------------------------------------------------------------|
|------------------------------------------------------------|
|------------------------------------------------------------|
|-5-5-5-5-5-5-5-5-5-5-5-5-5-5-5-5-5-5-5----------------------|
|-5-5-5-5-5-5-5-5-5-5-5-5-5-5-5-5-5-5-5----------------------|
|-3-3-3-3-3-3-3-3-3-3-3-3-3-3-3-3-3-3-3----------------------|




       We could live together........
|------------------------------------------------------------|
|------------------------------------------------------------|
|------------------------------------------------------------|
|-5-5-5-5-5-5-5-5-5-5-5-5-5-5-5-5-5-5-5----------------------|
|-5-5-5-5-5-5-5-5-5-5-5-5-5-5-5-5-5-5-5----------------------|
|-3-3-3-3-3-3-3-3-3-3-3-3-3-3-3-3-3-3-3----------------------|



         She lives on the    bor-der-line
|-14-14-14-------12-12-12------7-9-----2-2-3-----------------|
|-15-15-15-------13-13-13------8-10----3-3-3-----------------|
|-14-14-14-------12-12-12------7-9-----2-2-2-----------------|
|------------------------------------------------------------|
|------------------------------------------------------------|
|------------------------------------------------------------|



         That    they call      ha--zel
|-14-14-14-------12-12-12------7-9-----2-2-3-----------------|
|-15-15-15-------13-13-13------8-10----3-3-3-----------------|
|-14-14-14-------12-12-12------7-9-----2-2-2-----------------|
|------------------------------------------------------------|
|------------------------------------------------------------|
|------------------------------------------------------------|



         In the tent that   she lives in
|-14-14-14-------12-12-12------7-9-----2-2-3-----------------|
|-15-15-15-------13-13-13------8-10----3-3-3-----------------|
|-14-14-14-------12-12-12------7-9-----2-2-2-----------------|
|------------------------------------------------------------|
|------------------------------------------------------------|
|------------------------------------------------------------|



         Has the name of her     lov-er        
|-14-14-14-------12-12-12------7-9-----2-2-3-----------------|
|-15-15-15-------13-13-13------8-10----3-3-3-----------------|
|-14-14-14-------12-12-12------7-9-----2-2-2-----------------|
|------------------------------------------------------------|
|------------------------------------------------------------|
|------------------------------------------------------------|





     And i know whats on youir mind
|------------------------------------------------------------|
|------------------------------------------------------------|
|------------------------------------------------------------|
|-12-12----15-15---10-10-10-12-12--10------------------------|
|-12-12----15-15----8--8--8-12-12---8------------------------|
|-10-10----13-13----8--8--8-10-12---8------------------------|



      We've been drinking on the wine
|------------------------------------------------------------|
|------------------------------------------------------------|
|------------------------------------------------------------|
|-12-12----15-15---10-10-10-12-12--------10------------------|
|-12-12----15-15----8--8--8-12-12---------8------------------|
|-10-10----13-13----8--8--8-10-12---------8------------------|



    Theat we got from the serpents vine
|------------------------------------------------------------|
|------------------------------------------------------------|
|------------------------------------------------------------|
|-12-12----15-15---10-10-10-12-12--------10------------------|
|-12-12----15-15----8--8--8-12-12---------8------------------|
|-10-10----13-13----8--8--8-10-12---------8------------------|

(guitar the same just words faster)


         Sister can you tell me when the day turns to night
|--------------------------------------------------------------------------|
|--------------------------------------------------------------------------|
|--------------------------------------------------------------------------|
|-12---12----15---15---10---10---10---12---12-------------10---------------|
|-12---12----15---15----8----8----8---12---12--------------8---------------|
|-10---10----13---13----8----8----8---10---12--------------8---------------|


         She left without a word and wondered inside
|--------------------------------------------------------------------------|
|--------------------------------------------------------------------------|
|--------------------------------------------------------------------------|
|-12---12----15---15---10---10---10---12---12-------------10---------------|
|-12---12----15---15----8----8----8---12---12--------------8---------------|
|-10---10----13---13----8----8----8---10---12--------------8---------------|



         How many days must i still wonder why
|--------------------------------------------------------------------------|
|--------------------------------------------------------------------------|
|--------------------------------------------------------------------------|
|-12---12----15---15---10---10---10---12---12-------------10---------------|
|-12---12----15---15----8----8----8---12---12--------------8---------------|
|-10---10----13---13----8----8----8---10---12--------------8---------------|
-



         And see her face in every passer by
|--------------------------------------------------------------------------|
|--------------------------------------------------------------------------|
|--------------------------------------------------------------------------|
|-12---12----15---15---10---10---10---12---12-------------10---------------|
|-12---12----15---15----8----8----8---12---12--------------8---------------|
|-10---10----13---13----8----8----8---10---12--------------8---------------|





       We could live together.......
|------------------------------------------------------------|
|------------------------------------------------------------|
|------------------------------------------------------------|
|-5-5-5-5-5-5-5-5-5-5-5-5-5-5-5-5-5-5-5----------------------|
|-5-5-5-5-5-5-5-5-5-5-5-5-5-5-5-5-5-5-5----------------------|
|-3-3-3-3-3-3-3-3-3-3-3-3-3-3-3-3-3-3-3----------------------|



      We could live together......... 
|------------------------------------------------------------|
|------------------------------------------------------------|
|------------------------------------------------------------|
|-5-5-5-5-5-5-5-5-5-5-5-5-5-5-5-5-5-5-5----------------------|
|-5-5-5-5-5-5-5-5-5-5-5-5-5-5-5-5-5-5-5----------------------|
|-3-3-3-3-3-3-3-3-3-3-3-3-3-3-3-3-3-3-3----------------------|




|-14-14-14-------12-12-12------17-19----14-14-14-------------|
|-15-15-15-------13-13-13------18-20----15-15-15-------------|
|-14-14-14-------12-12-12------17-19----14-14-14-------------|
|------------------------------------------------------------|
|------------------------------------------------------------|
|------------------------------------------------------------|



        
|-14-14-14-------12-12-12------17-19----14-14-14-------------|
|-15-15-15-------13-13-13------18-20----15-15-15-------------|
|-14-14-14-------12-12-12------17-19----14-14-14-------------|
|------------------------------------------------------------|
|------------------------------------------------------------|
|------------------------------------------------------------|





|-14-14-14-------12-12-12------17-19----14-14-14-------------|
|-15-15-15-------13-13-13------18-20----15-15-15-------------|
|-14-14-14-------12-12-12------17-19----14-14-14-------------|
|------------------------------------------------------------|
|------------------------------------------------------------|
|------------------------------------------------------------|



        
|-14-14-14-------12-12-12------17-19----14-14-14-------------|
|-15-15-15-------13-13-13------18-20----15-15-15-------------|
|-14-14-14-------12-12-12------17-19----14-14-14-------------|
|------------------------------------------------------------|
|------------------------------------------------------------|
|------------------------------------------------------------|





|-14-14-14-------12-12-12------17-19----14-14-14-------------|
|-15-15-15-------13-13-13------18-20----15-15-15-------------|
|-14-14-14-------12-12-12------17-19----14-14-14-------------|
|------------------------------------------------------------|
|------------------------------------------------------------|
|------------------------------------------------------------|



        
|-14-14-14-------12-12-12------17-19----14-14-14-------------|
|-15-15-15-------13-13-13------18-20----15-15-15-------------|
|-14-14-14-------12-12-12------17-19----14-14-14-------------|
|------------------------------------------------------------|
|------------------------------------------------------------|
|------------------------------------------------------------|





|-14-14-14-------12-12-12------17-19----14-14-14-------------|
|-15-15-15-------13-13-13------18-20----15-15-15-------------|
|-14-14-14-------12-12-12------17-19----14-14-14-------------|
|------------------------------------------------------------|
|------------------------------------------------------------|
|------------------------------------------------------------|



        
|-14-14-14-------12-12-12------17-19----14-14-14-------------|
|-15-15-15-------13-13-13------18-20----15-15-15-------------|
|-14-14-14-------12-12-12------17-19----14-14-14-------------|
|------------------------------------------------------------|
|------------------------------------------------------------|
|------------------------------------------------------------|




|-14-14-14-------12-12-12------7-9-----2-2-3-----------------|
|-15-15-15-------13-13-13------8-10----3-3-3-----------------|
|-14-14-14-------12-12-12------7-9-----2-2-2-----------------|
|------------------------------------------------------------|
|------------------------------------------------------------|
|------------------------------------------------------------|



        
|-14-14-14-------12-12-12------7-9-----2-2-3-----------------|
|-15-15-15-------13-13-13------8-10----3-3-3-----------------|
|-14-14-14-------12-12-12------7-9-----2-2-2-----------------|
|------------------------------------------------------------|
|------------------------------------------------------------|
|------------------------------------------------------------|




|------------------------------------------------------------|
|------------------------------------------------------------|
|--------------sound effects & sounds with guitar------------|
|------------------------------------------------------------|
|------------------------------------------------------------|
|------------------------------------------------------------|




|------------------------------------------------------------|
|------------------------------------------------------------|
|--------------sound effects & sounds with guitar------------|
|------------------------------------------------------------|
|------------------------------------------------------------|
|------------------------------------------------------------|



|-16-16-16--17-17-17--16-16-16--17-17-17--16-16-16--17-17-17-|
|-17-17-17--18-18-18--17-17-17--18-18-18--17-17-17--18-18-18-|
|-16-16-16--17-17-17--16-16-16--17-17-17--16-16-16--17-17-17-|
|------------------------------------------------------------|
|------------------------------------------------------------|
|------------------------------------------------------------|



|-16-16-16--17-17-17--16-16-16--17-17-17--16-16-16--17-17-17-|
|-17-17-17--18-18-18--17-17-17--18-18-18--17-17-17--18-18-18-|
|-16-16-16--17-17-17--16-16-16--17-17-17--16-16-16--17-17-17-|
|------------------------------------------------------------|
|------------------------------------------------------------|
|------------------------------------------------------------|

|-19-19-19-19-19-19-19-19-19-19-19-19-19-19-19-19-19-19-19-19|
|-20-20-20-20-20-20-20-20-20-20-20-20-20-20-20-20-20-20-20-20|
|-19-19-19-19-19-19-19-19-19-19-19-19-19-19-19-19-19-19-19-19|
|------------------------------------------------------------|
|------------------------------------------------------------|
|------------------------------------------------------------|



 And i know whats on youir mind
|------------------------------------------------------------|
|------------------------------------------------------------|
|------------------------------------------------------------|
|-12-12----15-15---10-10-10-12-12--10------------------------|
|-12-12----15-15----8--8--8-12-12---8------------------------|
|-10-10----13-13----8--8--8-10-12---8------------------------|



      We've been drinking on the wine
|------------------------------------------------------------|
|------------------------------------------------------------|
|------------------------------------------------------------|
|-12-12----15-15---10-10-10-12-12--------10------------------|
|-12-12----15-15----8--8--8-12-12---------8------------------|
|-10-10----13-13----8--8--8-10-12---------8------------------|



    Theat we got from the serpents vine
|------------------------------------------------------------|
|------------------------------------------------------------|
|------------------------------------------------------------|
|-12-12----15-15---10-10-10-12-12--------10------------------|
|-12-12----15-15----8--8--8-12-12---------8------------------|
|-10-10----13-13----8--8--8-10-12---------8------------------|




     Now we live in another time
|------------------------------------------------------------|
|------------------------------------------------------------|
|------------------------------------------------------------|
|-12-12----15-15---10-10-10-12-12--10------------------------|
|-12-12----15-15----8--8--8-12-12---8------------------------|
|-10-10----13-13----8--8--8-10-12---8------------------------|



      We could live together.......
|------------------------------------------------------------|
|------------------------------------------------------------|
|------------------------------------------------------------|
|-5-5-5-5-5-5-5-5-5-5-5-5-5-5-5-5-5-5-5----------------------|
|-5-5-5-5-5-5-5-5-5-5-5-5-5-5-5-5-5-5-5----------------------|
|-3-3-3-3-3-3-3-3-3-3-3-3-3-3-3-3-3-3-3----------------------|



      We could live together......... 
|------------------------------------------------------------|
|------------------------------------------------------------|
|------------------------------------------------------------|
|-5-5-5-5-5-5-5-5-5-5-5-5-5-5-5-5-5-5-5----------------------|
|-5-5-5-5-5-5-5-5-5-5-5-5-5-5-5-5-5-5-5----------------------|
|-3-3-3-3-3-3-3-3-3-3-3-3-3-3-3-3-3-3-3----------------------|




     We could live together.........             ahhh
|------------------------------------------------------------|
|------------------------------------------------------------|
|------------------------------------------------------------|
|-5-5-5-5-5-5-5-5-5-5-5-5-5-5-5-5-5-5-5-------------12-------|
|-5-5-5-5-5-5-5-5-5-5-5-5-5-5-5-5-5-5-5-------------12-------|
|-3-3-3-3-3-3-3-3-3-3-3-3-3-3-3-3-3-3-3-------------10-------|


The end 
any comments please post them.



            
            
Suggest correction
Creating personal tab
Creating personal tab
You can edit any tab online and save it as your Personal.

You can edit, replace or remove any tab part or add personal notes – all changes will be seen only by you.

Personal tabs can be accessed anytime from any device, even offline.
Learn more »
comments
print report bad tab
guest
You may want to rate the tab now too:
select rating
Wanna post a correction for this tab? Suggest correction