Oops, an error
Loading. Please wait.

Witchcraft tab

version 1
version 1

Whole song

Interactive

12,014 views 24 this week
2 commentsread comments
1 2 3 4 5
x 6
add to favorites
×
Save as Personal and add changes to this tab that will be seen only by you. Learn more ›
×
You can save this tab as Personal to edit and correct it or add notes. All changes will be seen only by you. Learn more »
launch autoscroll
font size
0
reset
how to read this tab
guitar tuner
edit
Autoscroll
slow
fast
+/-
esc
set tempo
stop
Author
Difficulty
-------------------------------------------------------------------------------
                             Witchcraft - Wolfmother
-------------------------------------------------------------------------------
Tabbed by:Smurrt
Email:murray685@hotmail.com

Tuning:Standard

Intro
Riff 1
e|---------------------------------------------------------------------------|
B|---------------------------------------------------------------------------|
G|---------------------------------------------------------------------------|
D|---------5-----------------------------------------------------------------|
A|-7--5-------7--5-----------------------------------------------------------|
E|-------7----------5---/5--3h5--3--0----------------------------------------|

Verse
e|---------------------------------------------------------------------------|
B|---------------------------------------------------------------------------|
G|---------------------------------------------------------------------------|
D|---------------------------------------5-----------------------------------|
A|-7-----------------------------7--5-------7--5-----------------------------|
E|-------------------------------------7----------5---/5--3h5--3--0----------|

Pre-chorus
e|---------------------------------------------------------------------------|
B|---------------------------------------------------------------------------|
G|-5-------------------5------------------4----------------7-----------------|
D|-5-------------------5------------------4----------------7-----------------|
A|-3-------------------3------------------2----------------5-----------------|
E|---------------------------------------------------------------------------|

Chorus
e|---------------------------------------------------------------------------|
B|---------------------------------------------------------------------------|
G|----------------------9------------------11----------------13--------------|
D|-----11\--------------9---11\------------11---11\----------13---11\--------|
A|-----11\--------------7---11\-------------9---11\----------11---11\--------|
E|------9\-------------------9\------------------9\----------------9\--------|

Interlude
e|---------------------------------------------------------------------------|
B|---------------------------------------------------------------------------|
G|---------------------------------------------------------------------------|
D|--9--------------------------9---------------------------------------------|
A|--9--------------------------9---------------------------------------------|
E|--7--------------------------7---------------------------------------------|

Outro
e|---------------------------------------------------------------------------|
B|---------------------------------------------------------------------------|
G|---------------------------------------------------------------------------|
D|---------------------------------------------------------------------------|
A|--7\-----------------------------------------------------------------------|
E|--0------------------------------------------------------------------------|

            
            
Suggest correction
Creating personal tab
Creating personal tab
You can edit any tab online and save it as your Personal.

You can edit, replace or remove any tab part or add personal notes – all changes will be seen only by you.

Personal tabs can be accessed anytime from any device, even offline.
Learn more »
comments
print report bad tab
2 comments total.
0 reply
Dammit Missed T 70 May 13, 2006 04:59 PM

The way I see it:

Riff 1
e|----------------------------------------|
B|----------------------------------------|
G|----------------------------------------|
D|---------5------------------------------|
A|-7--5--7----7--5------------------------|
E|------------------/5-5-5--3h5--3--0-----|

Apart from that its an alright tab

0 reply
CrimsonRoc 30 Jul 13, 2006 09:58 AM

yeah, I think that this is a little more on^ But I think that you should slide into that first note.

guest
You may want to rate the tab now too:
select rating
Wanna post a correction for this tab? Suggest correction