Oops, an error
Loading. Please wait.

Wolfmother album tab

version 2
version 2

Album

20,258 views 3 this week
23 commentsread comments
1 2 3 4 5
x 17
add to favorites
×
Save as Personal and add changes to this tab that will be seen only by you. Learn more ›
×
You can save this tab as Personal to edit and correct it or add notes. All changes will be seen only by you. Learn more »
launch autoscroll
font size
0
reset
how to read this tab
guitar tuner
edit
Autoscroll
slow
fast
+/-
esc
set tempo
stop
Author
Wolfmother self titled album

1.	 Dimension
2.	 Tales from the Forest of Gnomes
3.	 Colossal
4.	 Woman
5.	 Where Eagles Have Been
6.	 Apple Tree
7.	 White Unicorn
8.	 Mind’s Eye
9.	 Joker & The Thief
10.	 Witchcraft
11.	 Vagabond
12.	 Pyramid
13.       Love Train
________________________________________________________________________

1.	Dimension

Intro
|-----------------(Play 4 Times)---|
|----------------------------------|
|----------------------------------|
|--------------------------------5-|
|--7---7---7---7---7---7--0h5--7---|
|--0---0---0---0---0---0-----------|

Verse
|----------------------------------------------------------------|
|----------------------------------------------------------------|
|----------------------------------------------------------------|
|-14--------------14-14-14---------7-7-7-----------14-14-14------|
|-14--------------14-14-14---------7-7-7-----------14-14-14------|
|-12--------------12-12-12---------5-5-5-----------12-12-12------|

|----------------------------------------------------------------|
|----------------------------------------------------------------|
|----------------------------------------------------------------|
|-9-9-9-----------(9)--------------7~~-------------(7)\----------|
|-9-9-9-----------(9)--------------7~~-------------(7)\----------|
|-7-7-7-----------(7)--------------5~~-------------(5)\----------|

Chorus
|---------------------------------------------------------------------|
|---------------------------------------------------------------------|
|----------------7-7-9--7---------------------------7-7-9--7----------|
|------5-6-7-8-9----------9-8-7-6-5-------5-6-7-8-9----------9-8-7-6-5|
|-5-7--------------------------------5-7------------------------------|
|---------------------------------------------------------------------|

|------------------------------------------------------------------|
|------------------------------------------------------------------|
|------------------------------------------------------------------|
|-14--------------8-7---------------12-14-----------8-7------------|
|-14--------------8-7---------------12-14-----------8-7------------|
|-12--------------6-5---------------10-12-----------6-5------------|
Riff
|-----------------------------------------------------------------|
|-----------------------------------------------------------------|
|-----------------------------------------------------------------|
|--------------5----------------5---------------5---------------5-|
|----7---0-5h7-------7---0-5h7--------7---0-5h7-------7---0-5h7---|
|-0---------------0-----------------------------------------------|

Verse
|----------------------------------------------------------------|
|----------------------------------------------------------------|
|----------------------------------------------------------------|
|-14--------------14-14-14---------7-7-7-----------14-14-14------|
|-14--------------14-14-14---------7-7-7-----------14-14-14------|
|-12--------------12-12-12---------5-5-5-----------12-12-12------|

|----------------------------------------------------------------|
|----------------------------------------------------------------|
|----------------------------------------------------------------|
|-9-9-9-----------(9)--------------7~~-------------(7)\----------|
|-9-9-9-----------(9)--------------7~~-------------(7)\----------|
|-7-7-7-----------(7)--------------5~~-------------(5)\----------|

|---------------------------------------------------------------------|
|--------------------------------------------------8-8-10-8-----------|
|---------------7-7-9--7-----------------5-6-7-8-9----------9-8-7-6-5-|
|------5-6-7-8-9---------9-8-7-6-5--5-7-------------------------------|
|-5-7-----------------------------------------------------------------|
|---------------------------------------------------------------------|

|-----------------------------------------------------------------|
|-----------------------------------------------------------------|
|-----------------------------------------------------------------|
|-14--------------8-7--------------12-14-----------8-7------------|
|-14--------------8-7--------------12-14-----------8-7------------|
|-12--------------6-5--------------10-12-----------6-5------------|

|---------------------------------------------------------------|
|---------------------------------------------------------------|
|-12--12--12--12--12--12--12--12--14--14--14--14--14~~~---------|
|-12--12--12--12--12--12--12--12--14--14--14--14--14~~~---------|
|-10--10--10--10--10--10--10--10--12--12--12--12--12~~~---------|
|---------------------------------------------------------------|

|----------------------------------------------------|
|----------------------------------------------------|
|----------------------------------------------------|
|--7--7--7--7---7--7--7--7---7--7--7--7---7--7--7--7-|
|--7--7--7--7---7--7--7--7---7--7--7--7---7--7--7--7-|
|--5--5--5--5---5--5--5--5---5--5--5--5---5--5--5--5-|

|-----------------------------------------------------------------|
|-----------------------------------------------------------------|
|-----------------------------------------------------------------|
|--------------5----------------5---------------5---------------5-|
|----7---0-5h7-------7---0-5h7--------7---0-5h7-------7---0-5h7---|
|-0---------------0-----------------------------------------------|

|----------------------------------------------------|
|----------------------------------------------------|
|----------------------------------------------------|
|--9--9--9--9---9--9--9--9---7--7--7--7---7\---------|
|--9--9--9--9---9--9--9--9---7--7--7--7---7\---------|
|--7--7--7--7---7--7--7--7---5--5--5--5---5\---------|

|---------------------------------------------------------------------|
|---------------------------------------------------7-7-9--7----------|
|----------------7-7-9--7-----------------4-5-6-7-8----------8-7-6-5-4|
|------5-6-7-8-9----------9-8-7-6-5--4-6------------------------------|
|-5-7-----------------------------------------------------------------|
|---------------------------------------------------------------------|

Ending
|----------(Play 4 Times)----------|
|----------------------------------|
|----------------------------------|
|--------------------------------5-|
|--7---7---7---7---7---7--0h5--7---|
|--0---0---0---0---0---0-----------|
__________________________________________________________________________

2.	Tales from the Forest of Gnomes

Intro
|--------------------------------------------------3-2--0-------|
|--------2--------3-2---0------------0--------------------------|
|------------2--------------(0)-----------0---------------------|
|----------------------------------------------------------(0)--|
|--0------------------------------------------------------------|
|---------------------------------------------------------------|

|---2--------------3-2---0--------------(Play 3 Times)---------|
|---------3------------------------2---------------------------|
|--------------------------------------------------------------|
|--------------------------------------------------------------|
|---------------------------(0)--------------------------------|
|--------------------------------------------------------------|

Bridge
|-------12----------12-----------|
|-------10----------10-----------|
|-------9-----------9------------|
|-------0-----------0------------|
|--------------------------------|
|---------------(Play 6 Times)---|

Verse
|--------------------------------------------------3-2--0-------|
|--------2--------3-2---0------------0--------------------------|
|------------2--------------(0)-----------0---------------------|
|----------------------------------------------------------(0)--|
|--0------------------------------------------------------------|
|---------------------------------------------------------------|

|---2--------------3-2---0--------------(Play 2 Times)---------|
|---------3------------------------2---------------------------|
|--------------------------------------------------------------|
|--------------------------------------------------------------|
|---------------------------(0)--------------------------------|
|--------------------------------------------------------------|

Chorus
|-----------------------------------------------------------------|
|-------14-15-17--15--14h15p14----------12-13-15--13--12h13p12----|
|------------------------------14------------------------------12-|
|--7--------------------------------5-----------------------------|
|--7--------------------------------5-----------------------------|
|--5--------------------------------3-----------------------------|

|------14-15-17--15--14h15p14-----------------------------------|
|-----------------------------15--------14-15-17--15-14-15-14---|
|--7------------------------------------------------------------|
|--7--------------------------------7---------------------------|
|--5--------------------------------7---------------------------|
|-----------------------------------5-------(Play 4 Times)------|

Bridge
|-------12----------12-----------|
|-------10----------10-----------|
|-------9-----------9------------|
|-------0-----------0------------|
|--------------------------------|
|---------------(Play 6 Times)---|

Verse
|--------------------------------------------------3-2--0-------|
|--------2--------3-2---0------------0--------------------------|
|------------2--------------(0)-----------0---------------------|
|----------------------------------------------------------(0)--|
|--0------------------------------------------------------------|
|---------------------------------------------------------------|

|---2--------------3-2---0--------------(Play 2 Times)---------|
|---------3------------------------2---------------------------|
|--------------------------------------------------------------|
|--------------------------------------------------------------|
|---------------------------(0)--------------------------------|
|--------------------------------------------------------------|
Chorus
|-----------------------------------------------------------------|
|-------14-15-17--15--14h15p14----------12-13-15--13--12h13p12----|
|------------------------------14------------------------------12-|
|--7--------------------------------5-----------------------------|
|--7--------------------------------5-----------------------------|
|--5--------------------------------3-----------------------------|

|------14-15-17--15--14h15p14-----------------------------------|
|-----------------------------15--------14-15-17--15-14-15-14---|
|--7------------------------------------------------------------|
|--7--------------------------------7---------------------------|
|--5--------------------------------7---------------------------|
|-----------------------------------5-------(Play 4 Times)------|

Ending
|-------12----------12-----------|
|-------10----------10-----------|
|-------9-----------9------------|
|-------0-----------0------------|
|--------------------------------|
|---------------(Play 6 Times)---|
________________________________________________________________________

3.	Colossal

Intro
|----------------------------------------------------|
|----------------------------------------------------|
|---7-------5---7-------7---7-------5---7---7p5------|
|---7---5h7-----7---5h7-----7---5h7-----7-------7----|
|---5-----------5-----------5-----------5------------|
|----------------------------------------------------|

|----------------------------------------------------|
|---------------------------------------7b-5b--------|
|---7-------5---7-------7---7-------5---7b-5b--------|
|---7---5h7-----7---5h7-----7---5h7------------------|
|---5-----------5-----------5------------------------|
|----------------------------------------------------|

Verse
|--------------------------------|
|--------------------------------|
|---7-7---7-7---7-7---7-7--5-----|
|---7-7---7-7---7-7---7-7--5-----|
|---5-5---5-5---5-5---5-5--3-----|
|--------------------------------|

Chorus
|--------------------------------------------|
|--------------------------------------------|
|--------------------5-5-5-5-5-5-5-5---------|
|---7-7-7-7-7-7-7-7--5-5-5-5-5-5-5-5---------|
|---7-7-7-7-7-7-7-7--3-3-3-3-3-3-3-3---------|
|---5-5-5-5-5-5-5-5--------------------------|

|----------------------------------------------------|
|---------------------------------------7b-5b--------|
|---7-------5---7-------7---7-------5---7b-5b--------|
|---7---5h7-----7---5h7-----7---5h7------------------|
|---5-----------5-----------5------------------------|
|----------------------------------------------------|

|--------------------------------------------|
|--------------------------------------------|
|--------------------5-5-5-5-5-5-5-5---------|
|---7-7-7-7-7-7-7-7--5-5-5-5-5-5-5-5---------|
|---7-7-7-7-7-7-7-7--3-3-3-3-3-3-3-3---------|
|---5-5-5-5-5-5-5-5--------------------------|

|----------(Play 4 Times)---------------|
|---------------------------------------|
|---5-7----13-12----6-5----8-7----------|
|---5-7----13-12----6-5----8-7----------|
|---3-5----11-10----4-3----6-5----------|
|---------------------------------------|

|---------------------------------------|
|---------------------------------------|
|--------------------------5------------|
|---7-7---7-7---7-7---7-7--5------------|
|---7-7---7-7---7-7---7-7--3------------|
|---5-5---5-5---5-5---5-5---------------|

|--------------------------------------------|
|--------------------------------------------|
|--------------------------------------------|
|--------------------------------------------|
|---3/5-5555—-3/5-5555-—3/5-5555--7-7-7------|
|--------------------------------------------|

|--------------------------------------------|
|--------------------------------------------|
|--------------------------------------------|
|---------------------------------5-6-7------|
|---3/5-5555—-3/5-5555—-3/5-5555--5-6-7------|
|---------------------------------3-4-5------|

|--------------------------------------------|
|--------------------------------------------|
|---5/7-7777—-5/7-7777--5/7-7777--9-9-9------|
|---5/7-7777—-5/7-7777--5/7-7777--9-9-9------|
|---3/5-5555—-3/5-5555—-3/5-5555--7-7-7------|
|--------------------------------------------|

|--------------------------------------------|
|--------------------------------------------|
|---5/7-7777—-5/7-7777--5/7-7777-------------|
|---5/7-7777—-5/7-7777--5/7-7777--5-6-7------|
|---3/5-5555—-3/5-5555—-3/5-5555--5-6-7------|
|---------------------------------3-4-5------|

|---------------------------------|
|---------------------------------|
|---10-10-10-9-9-9-8-8-8-7--------|
|---10-10-10-9-9-9-8-8-8-7--------|
|---8--8--8--7-7-7-6-6-6-5--------|
|---------------------------------|

|---------------------------------|
|---------------------------------|
|---10-------9-------8------7-----|
|---10-------9-------8------7-----|
|---8--------7-------6------5-----|
|---------------------------------|
___________________________________________________________________________

4.	Woman

Intro
|----------------------------------------|
|----------------------------------------|
|--9-9-9-9-9-9---------9-9-9-9-9-9-------|
|--9-9-9-9-9-9---------9-9-9-9-9-9-------|
|--7-7-7-7-7-7-----5---7-7-7-7-7-7-----5-|
|--------------5h7-----------------5h7---|

|-----------------(Play 4 Times)---------|
|----------------------------------------|
|--9-9-9-9-9-9---------------------------|
|--9-9-9-9-9-9---------7--------5--------|
|--7-7-7-7-7-7-----5---7--------5--------|
|--------------5h7-----5--------3--------|

Chorus
|---------------------------------------------------------------------|
|---------------------------------------------------------------------|
|---------------------------------------------------------------------|
|--7----------------10----------------7----------------10-------------|
|--7----------------10----------------7----------------10-------------|
|--5----------------8-----------------5----------------8--------------|

|-----------------|------------------|
|-----------------|------------------|
|-----------------|------------------|
|--9--------------|--12--------------|
|--9--------------|--12--------------|
|--7--------------|--10--------------|

|----------------------------------------|
|----------------------------------------|
|--9-9-9-9-9-9---------9-9-9-9-9-9-------|
|--9-9-9-9-9-9---------9-9-9-9-9-9-------|
|--7-7-7-7-7-7-----5---7-7-7-7-7-7-----5-|
|--------------5h7-----------------5h7---|

|-----------------(Play 3 Times)---------|
|----------------------------------------|
|--9-9-9-9-9-9---------------------------|
|--9-9-9-9-9-9---------7--------5--------|
|--7-7-7-7-7-7-----5---7--------5--------|
|--------------5h7-----5--------3--------|

Chorus
|---------------------------------------------------------------------|
|---------------------------------------------------------------------|
|---------------------------------------------------------------------|
|--7----------------10----------------7----------------10-------------|
|--7----------------10----------------7----------------10-------------|
|--5----------------8-----------------5----------------8--------------|

|-----------------|------------------|
|-----------------|------------------|
|-----------------|------------------|
|--9--------------|--12--------------|
|--9--------------|--12--------------|
|--7--------------|--10--------------|

Bridge
|---------------------(Play 4 Times)---------|
|--------------------------------------------|
|--------------------------------------------|
|--------------------------------------------|
|--7-5---5---------------7-5---5-------------|
|------7---7-5-7-5-3-5-------7---7-5-7-5-3-0-|

|---------------------(Play 15 Times)-------|
|-------------------------------------------|
|-------------------------------------------|
|-------------------------------------------|
|--------5---------5----------5--------7----|
|--0-5-7-----0-5-7------0-5-7----0-5-7------|

|--------------------------------------------|
|--------------------------------------------|
|--------------------------------------------|
|-----------------------7---------5----------|
|--7-5---5--------------7---------5----------|
|------7---7-5-7-5------5---------3----------|

|----------------------------------------|
|----------------------------------------|
|--9-9-9-9-9-9---------9-9-9-9-9-9-------|
|--9-9-9-9-9-9---------9-9-9-9-9-9-------|
|--7-7-7-7-7-7-----5---7-7-7-7-7-7-----5-|
|--------------5h7-----------------5h7---|

|----------------------------------------|
|----------------------------------------|
|--9-9-9-9-9-9---------------------------|
|--9-9-9-9-9-9---------7--------5--------|
|--7-7-7-7-7-7-----5---7--------5--------|
|--------------5h7-----5--------3--------|

Ending
|--------------------------------------------|
|--------------------------------------------|
|--------------------------------------------|
|--------------------------------------------|
|--7-5---5---------------7-5---5-------------|
|------7---7-5-7-5-3-5-------7---7-5-7-5-3-0-|
___________________________________________________________________________

5.	Where Eagles Have Been

Intro
|--2-----------2--3p2-0--2----1-----------1--1--1p0--------|
|--------3-----------------3--------3---------------3------|
|-----2-----2--------------------2-----2---------------2---|
|--0--------------0---0-------0--------------0--0----------|
|--------------------------------(Play 2 Times)------------|
|----------------------------------------------------------|

Verse
|--2-----------2--3p2-0--2----1-----------1--1--1p0--------|
|--------3-----------------3--------3---------------3------|
|-----2-----2--------------------2-----2---------------2---|
|--0--------------0---0-------0--------------0--0----------|
|----------------------------------------------------------|
|---------------------------------(Play 3 Times)-----------|

|--3-----------3--3-----------3--0-----------0------------------|
|--------3--------------3--------------1--------2-----------2---|
|-----------------------------------------------------2---------|
|--------------------------------------------------2-----2------|
|-----------------------------------2-----2-----0---------------|
|-----2-----2--------2-----2-----3------------------------------|
|--3--------------3---------------------------------------------|

|--2-----------2--3p2-0--2----1-----------1--1--1p0--------|
|--------3-----------------3--------3---------------3------|
|-----2-----2--------------------2-----2---------------2---|
|--0--------------0---0-------0--------------0--0----------|
|----------------------------------------------------------|
|----------------------------------------------------------|

|--2-----------2--3p2-0--2----1-----------1--1--1p0--------|
|--------3-----------------3--------3---------------3------|
|-----2-----2--------------------2-----2---------------2---|
|--0--------------0---0-------0--------------0--0----------|
|----------------------------------------------------------|
|--------------------------------(Play 3 Times)------------|

|--3-----------3--3-----------3--0-----------0------------------|
|--------3--------------3--------------1--------2-----------2---|
|-----------------------------------------------------2---------|
|--------------------------------------------------2-----2------|
|-----------------------------------2-----2-----0---------------|
|-----2-----2--------2-----2-----3------------------------------|
|--3--------------3---------------------------------------------|

|--2-----------2--3p2-0--2-----5-----------5--7-----8p7--------|
|--------3------------------3--------4------------------8------|
|-----2-----2---------------------5-----5--------7---------7---|
|--0--------------0---0--------0--------------0----------------|
|--------------------------------------------------------------|
|--------------------------------------------------------------|

|--2-----------2--3p2-0--2-----5-----------5--7-----8p7--------|
|--------3------------------3--------4------------------8------|
|-----2-----2---------------------5-----5--------7---------7---|
|--0--------------0---0--------0--------------0----------------|
|--------------------------------------------------------------|
|--------------------------------------------------------------|

Chorus
|-----------------------------------------------------------|
|----------------------------10------------------------12---|
|--11------------------------10------------------------12---|
|--12------------------------10------------------------12---|
|--12------------------------8-------------------------10---|
|--10------------------------8-------------------------10---|

|-----------------------------------------(Play 4 Times)----|
|----------------------------10------------------------12---|
|--11-11-11------------------10------------------------12---|
|--12-12-12------------------10------------------------12---|
|--12-12-12------------------8-------------------------10---|
|--10-10-10------------------8-------------------------10---|

Bridge
|-----------------------------------------(Play 2 Times)-----------|
|------------------------------------------------------------------|
|--11-------------------9--------------------4-------------------4-|
|--12-------------------10-------------------7-------------------5-|
|--12-------------------10-------------------7-------------------5-|
|--10-------------------8--------------------5-------------------3-|

Solo
|-----------------------------------------------------------10--|
|---------------------------------------------------10---13-----|
|-------------------------------10------10-----12---------------|
|---------------------10--12---------12-------------------------|
|-----------10---12---------------------------------------------|
|-10---13-------------------------------------------------------|

|-13-10-13-10-15-15b-17b--17b--17b--17b--17b--15rb-13---------13-|
|-----------------------------------------------------15--15-----|
|----------------------------------------------------------------|
|----------------------------------------------------------------|
|----------------------------------------------------------------|
|----------------------------------------------------------------|

|-----------------------------------------------------------------|
|-15--15--15--15-15-15--15-13-11-13-11----11----------------------|
|--------------------------------------12----12-10-12-10----10----|
|--------------------------------------------------------12----12-|
|-----------------------------------------------------------------|
|-----------------------------------------------------------------|

|---------------------------------------------------------15b-17--|
|-----------------------------------------------------15----------|
|-----------------------------------------------------------------|
|-10-12--10----10-------------------------------------------------|
|-----------12----12-10-12-10----10-------------------------------|
|-----------------------------13----13-10-13-10-8-----------------|

|-17b--17b--17b--17b--15rb-13-------------------------------------|
|----------------------------15-13-15-13-15-13----13--------------|
|----------------------------------------------14----14-12-14--12-|
|-----------------------------------------------------------------|
|-----------------------------------------------------------------|
|-----------------------------------------------------------------|

|-------------------------------------------------------------------------|
|-------------------------------------------------------------------------|
|-------------------------------------------------------------------------|
|---------5-7-5-----------5-7-5-------------8-10-8--------------8-10-8----|
|-----5-7-------7-----5-7-------7------8-10--------10------8-10--------10-|
|-5-7-------------5-7-------------8-11----------------8-11----------------|

|-5-5-5-5-5-5-5-3-5-5-5-5-5-5-5-3-5-5-5-5-5-5-5-3-5-5-5-5-5-5-5-3-|
|-7-7-7-7-7-7-7-5-7-7-7-7-7-7-7-5-7-7-7-7-7-7-7-5-7-7-7-7-7-7-7-5-|
|-7-7-7-7-7-7-7-5-7-7-7-7-7-7-7-5-7-7-7-7-7-7-7-5-7-7-7-7-7-7-7-5-|
|-7-7-7-7-7-7-7-5-7-7-7-7-7-7-7-5-7-7-7-7-7-7-7-5-7-7-7-7-7-7-7-5-|
|-5-5-5-5-5-5-5-3-5-5-5-5-5-5-5-3-5-5-5-5-5-5-5-3-5-5-5-5-5-5-5-3-|
|-----------------------------------------------------------------|

Fill
|-----------------(Play 4 Times)-|
|--------------------------------|
|--------------------------------|
|---------------3----------------|
|--5--5--0h3h5-----5p3p0---------|
|--------------------------------|

Verse
|--2-----------2--3p2-0--2----1-----------1--1--1p0--------|
|--------3-----------------3--------3---------------3------|
|-----2-----2--------------------2-----2---------------2---|
|--0--------------0---0-------0--------------0--0----------|
|----------------------------------------------------------|
|------------------------------------(Play 3 Times)--------|

|--3-----------3--3-----------3--0-----------0------------------|
|--------3--------------3--------------1--------2-----------2---|
|-----------------------------------------------------2---------|
|--------------------------------------------------2-----2------|
|-----------------------------------2-----2-----0---------------|
|-----2-----2--------2-----2-----3------------------------------|
|--3--------------3---------------------------------------------|

Chorus
|-----------------------------------------------------------|
|----------------------------10------------------------12---|
|--11------------------------10------------------------12---|
|--12------------------------10------------------------12---|
|--12------------------------8-------------------------10---|
|--10------------------------8-------------------------10---|

|----------------------------------------(Play 4 Times)-----|
|----------------------------10------------------------12---|
|--11-11-11------------------10------------------------12---|
|--12-12-12------------------10------------------------12---|
|--12-12-12------------------8-------------------------10---|
|--10-10-10------------------8-------------------------10---|

|------------------------------------------(Play 4 Times)----------|
|------------------------------------------------------------------|
|--11-------------------9--------------------4-------------------4-|
|--12-------------------10-------------------7-------------------5-|
|--12-------------------10-------------------7-------------------5-|
|--10-------------------8--------------------5-------------------3-|

Keyboard solo (no guitar)

|------------------------------------------(Play 3 Times)------------|
|---------------10------------12-------------------------------------|
|--11-----------10------------12--------------11--9---11--9---11--9--|
|--12-----------10------------12--------------12--10--12--10--12--10-|
|--12-----------8-------------10--------------12--10--12--10--12--10-|
|--10-----------8-------------10--------------10--8---10--8---10--8--|

|---------------------------------------------------(Play 6 Times)----|
|------------------10-------------------------------------------------|
|--11--------------10----------------------11--11--11--11--11--9------|
|--12--------------10----------------------12--12--12--12--12--10-----|
|--12--------------8-----------------------12--12--12--12--12--10-----|
|--10--------------8-----------------------10--10--10--10--10--8------|

Fill
|---------(Play 4 Times)---------|
|--------------------------------|
|--------------------------------|
|---------------3----------------|
|--5--5--0h3h5-----5p3p0---------|
|--------------------------------|

Outro
|--2-----------2--3p2-0--2----1-----------1--1--1p0--------|
|--------3-----------------3--------3---------------3------|
|-----2-----2--------------------2-----2---------------2---|
|--0--------------0---0-------0--------------0--0----------|
|----------------------------------------------------------|
|-------------------------------------(Play 2 Times)-------|

|--3-----------3--3-----------3--0-----------0-----------------2--|
|--------3--------------3--------------1--------2-----------2-----|
|-----------------------------------------------------2-----------|
|--------------------------------------------------2-----2-----0--|
|-----------------------------------2-----2-----0-----------------|
|-----2-----2--------2-----2-----3--------------------------------|
|--3--------------3-----------------------------------------------|
________________________________________________________________________

6.	Apple Tree

Intro
|--------------------------------------------------------------------|
|--------------------------------------------------------------------|
|--------------------------------------------------------------------|
|---------------------------8--------------------------------------8-|
|---------------------------8--------------------------------------8-|
|---------------------------6-----------(Play 2 Times)-------------6-|

|----------------|
|----------------|
|-------------8--| (Play 4 Times)
|8-8-8-8-8-8--8--|
|8-8-8-8-8-8--6--|
|6-6-6-6-6-6-----|

|--------------------------------------------------------------------|
|--------------------------------------------------------------------|
|--------------------------------------------------------------------|
|---------------------------8--------------------------------------8-|
|---------------------------8--------------------------------------8-|
|---------------------------6-----------(Play 2 Times)-------------6-|

|----------------|
|----------------|
|-------------8--| (Play 4 Times)
|8-8-8-8-8-8--8--|
|8-8-8-8-8-8--6--|
|6-6-6-6-6-6-----|

|--------|
|--------|
|--------| (Play 9 Times)
|--6--8--|
|--6--8--|
|--4--6--|

|-------------------(Play 3 Times)------|
|---------------------------------------|
|---------------------------------------|
|--11-11-11-11-11-11-11-11-11-11--6--8--|
|--11-11-11-11-11-11-11-11-11-11--6--8--|
|--9--9--9--9--9--9--9--9--9--9---4--6--|

|--------------------------------------------------------------------|
|--------------------------------------------------------------------|
|--------------------------------------------------------------------|
|---------------------------8--------------------------------------8-|
|---------------------------8--------------------------------------8-|
|---------------------------6-----------(Play 2 Times)-------------6-|

|----------------|
|----------------|
|-------------8--| (Play 4 Times)
|8-8-8-8-8-8--8--|
|8-8-8-8-8-8--6--|
|6-6-6-6-6-6-----|

|--------------------------------------------------------------------|
|--------------------------------------------------------------------|
|--------------------------------------------------------------------|
|---------------------------8--------------------------------------8-|
|---------------------------8--------------------------------------8-|
|---------------------------6-----------(Play 2 Times)-------------6-|

|----------------|
|----------------|
|-------------8--| (Play 4 Times)
|8-8-8-8-8-8--8--|
|8-8-8-8-8-8--6--|
|6-6-6-6-6-6-----|

|--------|
|--------|
|--------| (Play 9 Times)
|--6--8--|
|--6--8--|
|--4--6--|

|-------------------(Play 3 Times)------|
|---------------------------------------|
|---------------------------------------|
|--11-11-11-11-11-11-11-11-11-11--6--8--|
|--11-11-11-11-11-11-11-11-11-11--6--8--|
|--9--9--9--9--9--9--9--9--9--9---4--6--|

Solo
|---------------(Play 4 Times)---|
|--------------------------------|
|--------------------------------|
|--6--8----------------6-8-8-----|
|--6--8---------4-6/8------------|
|--4--6-----4h6------------------|

|--------------------(Play 2 Times)--------------------------|
|--------------------------------------------------9-11-11---|
|----6/8b9----9r8p6-----6-------------------6h8/10-----------|
|------------------8-8----8-8(let ring)-6h8------------------|
|------------------------------------------------------------|
|------------------------------------------------------------|

|---11b13-----13r11p9--------999---------------------|
|----------------------11-11-----11--11(let ring)----|
|----------------------------------------------------|
|----------------------------------------------------|
|----------------------------------------------------|
|----------------------------------------------------|

|---11b13-----13r11p9--------9-------------------------------|
|----------------------11-11---11--11-------------9-11-11----|
|-----------------------------------------6h8/10-------------|
|-------------------------------------6h8--------------------|
|------------------------------------------------------------|
|------------------------------------------------------------|

|--18-16-----------------------------------------------------|
|--------18-16b17r16-16-14-16-14----14-16-16-16b18r16p14-----|
|--------------------------------15----------------------15--|
|------------------------------------------------------------|
|------------------------------------------------------------|
|------------------------------------------------------------|

|-----------------------|
|--16-15b1616r15p13-----|
|------------------14---|
|-----------------------|
|-----------------------|
|-----------------------|

|-----18b19r18-18-16----16-----------------------|
|--------------------18----18-16-18-14h16p14-14--|
|------------------------------------------------|
|------------------------------------------------|
|------------------------------------------------|
|------------------------------------------------|

|------------------------|
|--16-16b18---r16p14-----|
|--------------------15--|
|------------------------|
|------------------------|
|------------------------|

|-------16-18b19r18-16----16---------------------------------|
|-16-18----------------18----18-16-14-16-------16~-------16~-|
|------------------------------------------15~------15~------|
|------------------------------------------------------------|
|------------------------------------------------------------|
|------------------------------------------------------------|

Ending
|---------------------|
|---------------------|
|---------------------|
|----8------8------8--|
|----8------8------8--|
|----6------6------6--|
__________________________________________________________________________

7.	White Unicorn

Intro
|---14-14-14---12-12-12---7---9----2-2-2--|
|---15-15-15---13-13-13---8---10---3-3-3--|
|---14-14-14---12-12-12---7---9----2-2-2--|
|-----------------------------------------|
|-----------------------------------------|
|-----------------------------------------|

|---------------------------|
|---------------------------|
|--5-7----7-10----5-5-5-7---|
|--5-7----7-10----5-5-5-7---|
|--3-5----5--8----3-3-3-5---|
|---------------------------|

|----------------------------------------------------------------|
|----------------------------------------------------------------|
|----------------------------------------------------------------|
|--5-5-5-5-5-5-5-5-5-5-5-5-5-5-5-5-5-5-5-5-5-5-5-5-5-5-5-5-5-5-5-|
|--5-5-5-5-5-5-5-5-5-5-5-5-5-5-5-5-3-3-5-5-5-5-5-5-5-5-5-5-5-5-5-|
|--3-3-3-3-3-3-3-3-3-3-3-3-3-3-3-3-3-3-3-3-3-3-3-3-3-3-3-3-3-3-3-|

|---14-14-14---12-12-12---7---9----2-2-2--|
|---15-15-15---13-13-13---8---10---3-3-3--|
|---14-14-14---12-12-12---7---9----2-2-2--|
|-----------------------------------------|
|-----------------------------------------|
|-----------------------------------------|

|---14-14-14---12-12-12---15---17---14-14-14----|
|---15-15-15---13-13-13---16---18---15-15-15----|
|---14-14-14---12-12-12---15---17---14-14-14----|
|-----------------------------------------------|
|-----------------------------------------------|
|-----------------------------------------------|

|---15-15-15---17-17-17---15-15-15---17-17-17---15-15-15---17-17-17-|
|---16-16-16---18-18-18---16-16-16---18-18-18---16-16-16---18-18-18-|
|---15-15-15---17-17-17---15-15-15---17-17-17---15-15-15---17-17-17-|
|-------------------------------------------------------------------|
|-------------------------------------------------------------------|
|-------------------------------------------------------------------|

|---15-15-15---17-17-17---15-15-15---17-17-17---15-15-15---17-17-17-|
|---16-16-16---18-18-18---16-16-16---18-18-18---16-16-16---18-18-18-|
|---15-15-15---17-17-17---15-15-15---17-17-17---15-15-15---17-17-17-|
|-------------------------------------------------------------------|
|-------------------------------------------------------------------|
|-------------------------------------------------------------------|

|---15-15-15---17-17-17---15-15-15---17-17-17---19-19-19---19-19-19--|
|---16-16-16---18-18-18---16-16-16---18-18-18---20-20-20---20-20-20--|
|---15-15-15---17-17-17---15-15-15---17-17-17---19-19-19---19-19-19--|
|--------------------------------------------------------------------|
|--------------------------------------------------------------------|
|--------------------------------------------------------------------|

|---19-19-19---19-19-19---19-19-19---19-19-19---19-19-19---19-19-19--|
|---20-20-20---20-20-20---20-20-20---20-20-20---20-20-20---20-20-20--|
|---19-19-19---19-19-19---19-19-19---19-19-19---19-19-19---19-19-19--|
|--------------------------------------------------------------------|
|--------------------------------------------------------------------|
|--------------------------------------------------------------------|

|---19-19-19---19-19-19---19-19-19---19-19-19----|
|---20-20-20---20-20-20---20-20-20---20-20-20----|
|---19-19-19---19-19-19---19-19-19---19-19-19----|
|------------------------------------------------|
|------------------------------------------------|
|------------------------------------------------|

Outro
|----------------------------------------------------------------|
|----------------------------------------------------------------|
|----------------------------------------------------------------|
|--5-5-5-5-5-5-5-5-5-5-5-5-5-5-5-5-5-5-5-5-5-5-5-5-5-5-5-5-5-5-5-|
|--5-5-5-5-5-5-5-5-5-5-5-5-5-5-5-5-3-3-5-5-5-5-5-5-5-5-5-5-5-5-5-|
|--3-3-3-3-3-3-3-3-3-3-3-3-3-3-3-3-3-3-3-3-3-3-3-3-3-3-3-3-3-3-3-|
__________________________________________________________________________

8.	Mind’s Eye

Intro
e|--------------------------------------------------------------------|
B|----17----17----17----17----17----17----17----17----17---17---17----|
G|-17----17----17----17----16----16----16----16----14----14---14---14-|
D|--------------------------------------------------------------------|
A|--------------------------------------------------------------------|
E|---------------------------------------------(Play 2 Times)---------|

Verse
|--------(Play 3 Times)--|
|------------------------|
|------------------------|
|-7~-------5~--------3~--|
|-7~-------5~--------3~--|
|-5~-------3~--------1~--|

|-------------------------------------------|
|-------------------------------------------|
|----------------------------------7-9-12---|
|-7--------5---------3--5--7--9-10-7-9-12---|
|-7--------5---------3--5--7--9-10-5-7-10---|
|-5--------3---------1--3--5--7-8-----------|

Chorus
|--------------------------------------------|
|--------------------------------------------|
|-14--------12-----------------------7-9-12--|
|-14--------12---------3--5--7--9-10-7-9-12--|
|-12--------10---------3--5--7--9-10-5-7-10--|
|----------------------1--3--5--7-8----------|

|---|
|---|
|-2-|
|-2-|
|-0-|
|---|

|-(Play 5 Times)-|
|----------------|
|--7-5------7-2--|
|--7-5------7-2--|
|--5-3------5-0--|
|----------------|

|---(Play 3 Times)-------|
|------------------------|
|------------------------|
|-7~-------5~--------3~--|
|-7~-------5~--------3~--|
|-5~-------3~--------1~--|

|-------------------------------------------|
|-------------------------------------------|
|----------------------------------7-9-12---|
|-7--------5---------3--5--7--9-10-7-9-12---|
|-7--------5---------3--5--7--9-10-5-7-10---|
|-5--------3---------1--3--5--7-8-----------|


|---|
|---|
|-2-|
|-2-|
|-0-|
|---|

|-(Play 4 Times)-|
|----------------|
|--7-5------7-2--|
|--7-5------7-2--|
|--5-3------5-0--|
|----------------|

|---------------------------------|
|---------------------------------|
|------------------------7-9-12---|
|----------3--5--7--9-10-7-9-12---|
|----------3--5--7--9-10-5-7-10---|
|----------1--3--5--7-8-----------|

|---|
|---|
|-2-|
|-2-|
|-0-|
|---|


|-(Play 2 Times)-|
|----------------|
|--7-5------7-2--|
|--7-5------7-2--|
|--5-3------5-0--|
|----------------|

|-----------------------------------------------|
|-----------------------------------------------|
|-7~------7~------------------------7-5----7-2--|
|-7~------7~-----7-7-7-7-5-5-7~-----7-5----7-2--|
|-3~------5~-----7-7-7-7-5-5-7~-----5-3----5-0--|
|----------------5-5-5-5-3-3-5~-----------------|

Ending
|-------------------------------------|
|-------------------------------------|
|------------------------7-9-12-14~---|
|----------3--5--7--9-10-7-9-12-14~---|
|----------3--5--7--9-10-5-7-10-12~---|
|----------1--3--5--7-8---------------|
_________________________________________________________________________

9.	Joker & The Thief   (Open G)

Intro/Chorus
|-----------------------------------------------|
|-----------------------------------------------|
|---------0h5h7---------0h5h7-------------------|
|---0h5h7---------0h5h7-------------------------|
|-----------------------------------------------|
|-----------------------------------------------|

Verse
|----------------------(Play 3 Times)-----------|
|-----------------------------------------------|
|-----------------------------------------------|
|--12-12-12-12-12-12--10h12-10h12-10h12---------|
|--12-12-12-12-12-12--10h12-10h12-10h12---------|
|--12-12-12-12-12-12--10h12-10h12-10h12---------|

|-----------------------------------------------|
|-----------------------------------------------|
|-----------------------------------------------|
|--15-15-15-15-/-17-17---15h17-15h17-15-/-------|
|--15-15-15-15-/-17-17---15h17-15h17-15-/-------|
|--15-15-15-15-/-17-17---15h17-15h17-15-/-------|

|----------------------(Play 5 Times)-----------|
|-----------------------------------------------|
|-----------------------------------------------|
|-/12-12-12-12-12-12--10h12-10h12-10h12---------|
|-/12-12-12-12-12-12--10h12-10h12-10h12---------|
|-/12-12-12-12-12-12--10h12-10h12-10h12---------|

|-----------------------------------------------|
|-----------------------------------------------|
|-----------------------------------------------|
|--15-15-15-15-/-17-17---15h17-15h17-15-/-------|
|--15-15-15-15-/-17-17---15h17-15h17-15-/-------|
|--15-15-15-15-/-17-17---15h17-15h17-15-/-------|

|----------------------(Play 5 Times)-----------|
|-----------------------------------------------|
|-----------------------------------------------|
|-/12-12-12-12-12-12--10h12-10h12-10h12---------|
|-/12-12-12-12-12-12--10h12-10h12-10h12---------|
|-/12-12-12-12-12-12--10h12-10h12-10h12---------|

|-----------------------------------------------|
|-----------------------------------------------|
|-----------------------------------------------|
|--15-----------------17------------------------|
|--15-----------------17------------------------|
|--15-----------------17------------------------|

Solo
|---------------------------------------------------------|
|---------------------------------------------------------|
|---------------------------------------------------------|
|-------7-5-4-5-4-----------7-5-4-5-4---------------------|
|--5--------------5-3-----------------7-5-----------------|
|---------------------------------------------------------|

|---------------------------------------------------------|
|---------------------------------------------------------|
|---------------------------------------------------------|
|-------7-5-4-5-4-----------7-5-4-5-4-5--5/7--7/9---9b10--|
|-----------------5-3-------------------------------------|
|---------------------------------------------------------|

|---------------------------------------------------------|
|---------------------------------------------------------|
|-14---14-12-11-12-11---------14-12-11-12-11--------------|
|--------------------12-10-----------------14-12----------|
|---------------------------------------------------------|
|---------------------------------------------------------|

|---------------------------------------------------------|
|---------------------------------------------------------|
|-14---14-12-11-12-11---------14-12-11-12-11--12--12/14---|
|--------------------12-10--------------------------------|
|---------------------------------------------------------|
|---------------------------------------------------------|

|---------------------------------------------------------|
|---------------------------------------------------------|
|--14-14/16--16b17----------------------------------------|
|---------------------------------------------------------|
|---------------------------------------------------------|
|---------------------------------------------------------|

|---------------------------------------------------------|
|------------------h20---------------------h22------------|
|---21-21-21-21p19----------21-21-21-21p19----------------|
|---------------------------------------------------------|
|---------------------------------------------------------|
|----------------------------------(Play 3 Times)---------|

|---------------------------------------------------------|
|---22b23---22p19-----------------------------------------|
|-----------------h20->->->->->---------------------------|
|-------------------------------------15----------17------|
|-------------------------------------15----------17------|
|-------------------------------------15----------17------|

Outro
|----------------------------(Play 5 Times)-----|
|-----------------------------------------------|
|-----------------------------------------------|
|--12-12-12-12-12-12--10h12-10h12-10h12---------|
|--12-12-12-12-12-12--10h12-10h12-10h12---------|
|--12-12-12-12-12-12--10h12-10h12-10h12---------|

|-----------------------------------------------|
|-----------------------------------------------|
|-----------------------------------------------|
|--15---17---15---17---------15-------17--------|
|--15---17---15---17---------15-x8----17-x8-----|
|--15---17---15---17---------15-------17--------|

|------------------|
|------------------|
|------------------|
|--12->->->->->->--|
|--12->->->->->->--|
|--12->->->->->->--|
_____________________________________________________________________________

10.	Witchcraft

Intro
|---------(Play 4 Times)---|
|--------------------------|
|--------------------------|
|--------5-----------------|
|--7-5-7---7-5-------------|
|--------------5-5-3h5-3-0-|

Verse
|-------------------------------------------------------|
|-------------------------------------------------------|
|-------------------------------------------------------|
|--------------------------------------5----------------|
|7-------------------------------7-5-7---7-5------------|
|--------------------------------------------5-5-3h5-3-0|

Pre-chorus
|-------------------------------------------------------|
|-------------------------------------------------------|
|-------5------------5------------4-----------7---------|
|-------5------------5------------4-----------7---------|
|-------3------------3------------2-----------5---------|
|-------------------------------------------------------|

Chorus
|---------------------------(Play 2 Times)--------------|
|-------------------------------------------------------|
|----------------9-----------11-----------13------------|
|-------11-------9---11------11--11-------13--11--------|
|-------11-------7---11-------9--11-------11--11--------|
|--------9------------9-----------9------------9--------|

|-7-7-7-7-6-6--7-7-7-7-6-6--7-7-7-7-6-6--7-7-7-7-6-6----|
|-------------------------------------------------------|
|-------------------------------------------------------|
|-------------------------------------------------------|
|-------------------------------------------------------|
|-------------------------------------------------------|

|--------------------------|
|--------------------------|
|--------------------------|
|--------5-----------------|
|--7-5-7---7-5-------------|
|--------------5-5-3h5-3-0-|

Verse
|-------------------------------------------------------|
|-------------------------------------------------------|
|-------------------------------------------------------|
|--------------------------------------5----------------|
|7-------------------------------7-5-7---7-5------------|
|--------------------------------------------5-5-3h5-3-0|

Pre-chorus
|-------------------------------------------------------|
|-------------------------------------------------------|
|-------5------------5------------4-----------7---------|
|-------5------------5------------4-----------7---------|
|-------3------------3------------2-----------5---------|
|-------------------------------------------------------|

Chorus
|---------------------------(Play 2 Times)--------------|
|-------------------------------------------------------|
|----------------9-----------11-----------13------------|
|-------11-------9---11------11--11-------13--11--------|
|-------11-------7---11-------9--11-------11--11--------|
|--------9------------9-----------9------------9--------|

|-7-7-7-7-6-6--7-7-7-7-6-6--7-7-7-7-6-6--7-7-7-7-6-6----|
|-------------------------------------------------------|
|-------------------------------------------------------|
|-------------------------------------------------------|
|-------------------------------------------------------|
|-------------------------------------------------------|

|-------------------------------------------------------|
|-------------------------------------------------------|
|-------------------------------------------------------|
|------9---------------------9--------------------------|
|------9---------------------9--------------------------|
|------7---------------------7--------------------------|

|--------------------------|
|--------------------------|
|--------------------------|
|--------5-----------------|
|--7-5-7---7-5-------------|
|--------------5-5-3h5-3-0-|

Pre-chorus
|-------------------------------------------------------|
|-------------------------------------------------------|
|-------5------------5------------4-----------7---------|
|-------5------------5------------4-----------7---------|
|-------3------------3------------2-----------5---------|
|-------------------------------------------------------|

Chorus
|---------------------------(Play 2 Times)--------------|
|-------------------------------------------------------|
|----------------9-----------11-----------13------------|
|-------11-------9---11------11--11-------13--11--------|
|-------11-------7---11-------9--11-------11--11--------|
|--------9------------9-----------9------------9--------|

|-7-7-7-7-6-6--7-7-7-7-6-6--7-7-7-7-6-6--7-7-7-7-6-6----|
|-------------------------------------------------------|
|-------------------------------------------------------|
|-------------------------------------------------------|
|-------------------------------------------------------|
|-------------------------------------------------------|

Ending
|----------(Play 4 Times)--|
|--------------------------|
|--------------------------|
|--------5-----------------|
|--7-5-7---7-5-------------|
|--------------5-5-3h5-3-0-|
_______________________________________________________________________

11.	Vagabond

A
Oh girl, I don’t know all the reasons why
I found the answer, looking in your eye
I go out walking, all day long
Take away this lonely man, soon he will be gone
G	D                    A
Cause I’ll tell you everything about living free
G
Yes I can see you girl
D                      A
Can you see me?

A
You don’t need to know what I do all day
It’s as much as I know
Watch it waste away
G	D                    A
Cause I’ll tell you everything about living free
G
Yes I can see you girl
D                      A
Can you see me?

A
Go and see the sorcerer, look into the ball
You may find the answer, written on the wall
G
Look at what’s inside her
D
Can you see the answer?

A
Put her on a mansion on top of a hill
Please don’t make her do the things against her will
I found something special
I don’t know why
Looking into her pretty little eye
G	D                    A
Cause I’ll tell you everything about living free
_________________________________________________________________________

12.	Pyramid

Intro

|-------|
|-------|
|-------|
|-------|
|-------|
|--3~~~-|

|------------------------------------------|
|------------------------------------------|
|------------------------------------------|
|------------------------------------------|
|------------------------------------------|
|------------------------------------------|
|-3-p0--3-p0--3-p0--3-p0--3-p0--3-p0--3/6b-|

|--13-11-10~----13-11-10-------------------|
|------------------------13-11-10-11-10----|
|------------------------------------------|
|------------------------------------------|
|------------------------------------------|
|------------------------------------------|

|------------------------------------------|
|--10-11-13-----10-11-13-------------------|
|------------------------------------------|
|------------------------------------------|
|------------------------------------------|
|--------------------(Play 2 Times)--------|


|--13-11-10~----13-11-10-------------------|
|------------------------13-11-10-11-10\---|
|------------------------------------------|
|------------------------------------------|
|------------------------------------------|
|------------------------------------------|

Pre Verse
|------------------(Play 4 Times)----------|
|------------------------------------------|
|------------------------------------------|
|------------------------------------------|
|------------------------------------------|
|------------------------------------------|
|-3-p0--3-p0--3-p0--3-p0--3-p0--3-p0--3/6b-|

After Verse
|---------------------(Play 2 Times)-------|
|------------------------------------------|
|------------------------------------------|
|------------------------------------------|
|------------------------------------------|
|------------------------------------------|
|-3-p0--3-p0--3-p0--3-p0--3-p0--3-p0--3/6~-|

|--------------------(Play 4 Times)--------|
|------------------------------------------|
|------------------------------------------|
|------------------------------------------|
|------------------------------------------|
|---------------------------------------6b-|

|--13-11-10~----13-11-10-------------------|
|------------------------13-11-10-11-10----|
|------------------------------------------|
|------------------------------------------|
|------------------------------------------|
|------------------------------------------|

|------------------------------------------|
|--10-11-13-----10-11-13-------------------|
|------------------------------------------|
|------------------------------------------|
|------------------------------------------|
|------------------(Play 2 Times)----------|

|--13-11-10~----13-11-10-------------------|
|------------------------13-11-10-11-10\---|
|------------------------------------------|
|------------------------------------------|
|------------------------------------------|
|------------------------------------------|

|------------------(Play 4 Times)------------|
|--------------------------------------------|
|--------------------------------------------|
|--------------------------------------------|
|-------------------------------------3p1--1-|
|-3-p0--3-p0--3-p0--3-p0--3-p0--3-p0-----3---|

|--------------------------------------------|
|--------------------------------------------|
|--------------------------------------------|
|--------------------------------------------|
|------------------------------10p8----8-----|
|-10--10--10--10--10--10--10--------10-------|

|--------------------------------------------|
|--------------------------------------------|
|--------------------------------------------|
|--------------------------------------------|
|----------------10p8----8-------------------|
|-8---8---8---8-------10---10-8-10-8-6-8-6-5-|

|-------------------(Play 2 Times)--------|
|-----------------------------------------|
|-----------------------------------------|
|--5~~~~-----------------3~~~~------------|
|--5~~~~-----------------3~~~~------------|
|--3~~~~-----------------1~~~~------------|

|-----------------------------------------------------|
|-----------------------------------------------------|
|-----------------------------------------------------|
|--8~~~~~-----------------10~~~~----------------------|
|--8~~~~~-----------------10~~~~----------------------|
|--6~~~~~-----------------8~~~~~----------------------|

Solo
|-----------------------------------------------------------------|
|------------------------------------------3-8b8-5~-8b8-5~-8b8-5~-|
|-------------3-5b7-(7)-5p3---3~-------3-5------------------------|
|---------3-5---------------5----5-3-5----------------------------|
|-----3-5---------------------------------------------------------|
|-3-6-------------------------------------------------------------|

       8x
|-6-|6h8p6--|-8bp6---6---------------------------------|
|---|------8|------8---8p6-----------------------------|
|---|-------|--------------5-5p3---3-------------------|
|---|-------|--------------------5---5-5p3---3---------|
|---|-------|------------------------------5---5-5p3-5-|
|---|-------|------------------------------------------|

|-------------------------------------------------|
|---------------------------------3-8b8-5~-8b8-5~-|
|-5/b7-5b7-5b7-5p3------------3-5-----------------|
|------------------5~---5-3-5---------------------|
|-------------------------------------------------|
|-------------------------------------------------|

|-6-8/b10-----8b10-8b10-8p6----6-8/b10-8/b10-|
|---------------------------8~---------------|
|--------------------------------------------|
|--------------------------------------------|
|--------------------------------------------|
|--------------------------------------------|

Verse

Outro
|--13-11-10~----13-11-10-------------------|
|------------------------13-11-10-11\------|
|------------------------------------------|
|------------------------------------------|
|------------------------------------------|
|------------------------------------------|

|----------------------(Play 4 Times)--------|
|--------------------------------------------|
|--------------------------------------------|
|--------------------------------------------|
|-------------------------------------3p1--1-|
|-3-p0--3-p0--3-p0--3-p0--3-p0--3-p0-----3---|

|--------------------------------------------|
|--------------------------------------------|
|--------------------------------------------|
|--------------------------------------------|
|------------------------------10p8----8-----|
|-10--10--10--10--10--10--10--------10-------|

|---------------------------------------------------------------------|
|---------------------------------------------------------------------|
|---------------------------------------------------------------------|
|-----------5p3---3--------------5p3---3--------------5p3---3---------|
|3--3--3--3-----5---5-3-5-3--3-------5---5-3-5-3--3-------5---5-3-5-3-|
|---------------------------6-6-5----------------6-6-5---------------6|

|--------------------------------------------|
|--------------------------------------------|
|--------------------------------------------|
|----5---------------------------------------|
|----5---------------------------------------|
|----3---------------------------------------|
__________________________________________________________________________

13. Love Train

Percussion intro (0:00)

Intro (00:10)
|-------(Play 3 Times)--------|
|-----------------------------|
|-----------------------------|
|-10-10-----------------------|
|-10-10---8-10-10--8p6---6----|
|--8--8----------------8---8--|

Verse (00:18)
|----------------------------------------(Play 5 Times)-----------|
|-----------------------------------------------------------------|
|-----------------------------------------------------------------|
|-10-10-----------------------10--[rest-for-bass-riff-and-lyrics]-|
|-10-10---8-10-10--8p6---6----10----------------------------------|
|--8--8----------------8---8---8----------------------------------|

Chorus (00:42)
|------------------------------------|
|------------------------------------|
|------------------------------------|
|---12------------13------------12---|
|---12------------13------------12---|
|---10------------11------------10---|

Verse (00:47)
|----------(Play 2 Times)-----|
|-----------------------------|
|-----------------------------|
|-10-10-----------------------|
|-10-10---8-10-10--8p6---6----|
|--8--8----------------8---8--|

Chorus (00:52)
|------------------------------------|
|------------------------------------|
|------------------------------------|
|---12------------13------------12---|
|---12------------13------------12---|
|---10------------11------------10---|

Verse (00:58)
|-----------------------------|
|-----------------------------|
|-----------------------------|
|-10-10-----------------------|
|-10-10---8-10-10--8p6---6----|
|--8--8----------------8---8--|

Verse (1:00)
|------------------------(Play 5 Times)-------------|
|---------------------------------------------------|
|---------------------------------------------------|
|-10-10-----------------------10--[rest-for-lyrics]-|
|-10-10---8-10-10--8p6---6----10--------------------|
|--8--8----------------8---8---8--------------------|

Chorus (1:24)
|------------------------------------|
|------------------------------------|
|------------------------------------|
|---12------------13------------12---|
|---12------------13------------12---|
|---10------------11------------10---|

Solo (1:30)
|--------------------------------------------------------------------------|
|--------------------------------------------------------------------------|
|---------------8-10bubdp8-----------8-7-8-7-8-7--------------------------8|
|-----------8h10-----------10---8-10-------------8-10---8h10p8----8--10----|
|------8h10----------------------------------------------------10----------|
|-8h10---------------------------------------------------------------------|

|--------------------------------------------------------------------------|
|--------------------------------------------------------------------------|
|-------------------------------10--------10-12-10bu-----------------------|
|-10-8--------------10h12p10-12----12-12---------------12-12---10h12p10----|
|------10-8h10s12-------------------------------------------------------12-|
|--------------------------------------------------------------------------|

|-------------------------------------------------|
|-------------------------------------------------|
|-------------------------------------------------|
|-10-----------10h12p10----10-12--12bu[hold bend]-|
|----12--10h12----------12------------------------|
|-------------------------------------------------|

Chorus (2:10)
|------------------------------------|
|------------------------------------|
|------------------------------------|
|---12------------13------------12---|
|---12------------13------------12---|
|---10------------11------------10---|

Verse (2:15)
|-------(Play 2 Times)--------|
|-----------------------------|
|-----------------------------|
|-10-10-----------------------|
|-10-10---8-10-10--8p6---6----|
|--8--8----------------8---8--|

Chorus (2:20)
|------------------------------------|
|------------------------------------|
|------------------------------------|
|---12------------13------------12---|
|---12------------13------------12---|
|---10------------11------------10---|

Bridge: (2:25)
|-----------------------------------------------------------------------|
|-----------------------------------------------------------------------|
|-----------------------------------------------------------------------|
|-10-------10-------10-------10-------10--10--10--10--10--10--10--10--10|
|-10-------10-------10-------10-------10--10--10--10--10--10--10--10--10|
|--8--------8--------8--------8--------8---8---8---8---8---8---8---8---8|
         Love    love     love     love

Ending Solo 2 (2:36)
|--------------------------------------------------------------------------|
|--------------------------------------------------------------------------|
|----------------8-10bu[hold]bdp8----8---------------------------------8---|
|-----------8h10------------------10---10-10-------8h10p8----8-10-10-----10|
|------8h10-----------------------------------8h10--------10---------------|
|-8h10---------------------------------------------------------------------|

|--------------------------------------------------------------------------|
|--------------------------------------------------------------------------|
|-8-10----10----10s12---12bu[hold]-12bu-12bu-12p10----10-------10----------|
|------13----13------------------------------------12----10h12----12-10-12-|
|--------------------------------------------------------------------------|
|--------------------------------------------------------------------------|

|----------------------------------------------------|
|----------------------------------------------------|
|-------------10-12-12bu[hold]--10p8----8------------|
|-------10-12------------------------10---10--10-10--|
|-10h12---------------------------------------10-10--|
|----------------------------------------------8--8--|

            
            
Suggest correction
Creating personal tab
Creating personal tab
You can edit any tab online and save it as your Personal.

You can edit, replace or remove any tab part or add personal notes – all changes will be seen only by you.

Personal tabs can be accessed anytime from any device, even offline.
Learn more »
comments
print report bad tab
23 comments total. Showing first comments.
0 reply
sampz 10 Sep 06, 2006 08:47 AM

hey i dont wanna be a nob but im sure its 9 and 7 not 0 and 7 on the intro.

0 reply
Grinspoon-Guy 41 Sep 08, 2006 08:02 PM

LOVE TRAIN???????????????

0 reply
gunsNroses140 31 Sep 22, 2006 09:43 AM

I know, wheres Love Train?

guest
You may want to rate the tab now too:
select rating
Wanna post a correction for this tab? Suggest correction