Oops, an error
Loading. Please wait.

Uglybird tab

version 1
version 1

Whole song

Interactive

704 views 1 this week
no commentswrite comment
1 2 3 4 5
3 more votes to show rating
add to favorites
×
Save as Personal and add changes to this tab that will be seen only by you. Learn more ›
×
You can save this tab as Personal to edit and correct it or add notes. All changes will be seen only by you. Learn more »
launch autoscroll
font size
0
reset
how to read this tab
guitar tuner
edit
Autoscroll
slow
fast
+/-
esc
set tempo
stop
Difficulty
okay, first off i did this by ear and i suck so hard at tabbing stuff and even more at 
it by ear so yeah appreciate this or i'll come to your house and rape your butthole
i'm 100% sure this is right or at least sounds 100% right unless i fucked up when i was 
it
email me if you get the rest- clayedwardwhite@aim.com

e-----------------|-----------------|-----------------|-----------------|
B---1-----1-------|---1-----1-------|---1-----1-------|---1-----1-------|
G-----------------|-----------------|-----------------|-----------------|
D-----0h2---------|-----0h2---------|-----0h2---------|-----0h2---------|
A-0---------------|-0---------------|-0---------------|-0---------------|
E-----------------|-----------------|-----------------|-----------------|

e-----------------|-----------------|-----------------|-----------------|
B---0-----0-------|---0-----0-------|---0-----0-------|---0-----0-------|
G-----------------|-----------------|-----------------|-----------------|
D-----------------|-----------------|-----------------|-----------------|
A-----0h2---------|-----0h2---------|-----0h2---------|-----0h2---------|
E-3---------------|-3---------------|-3---------------|-3---------------|

i dont know what novice means
ohh and uhh if you're an idiot like i am then its way easy if you pick it with your 
finger and your thumb
no capos either

            
            
Suggest correction
Creating personal tab
Creating personal tab
You can edit any tab online and save it as your Personal.

You can edit, replace or remove any tab part or add personal notes – all changes will be seen only by you.

Personal tabs can be accessed anytime from any device, even offline.
Learn more »
Give kudos to tab author, rate the tab!
1 2 3 4 5
comments
print report bad tab
guest
Wanna post a correction for this tab? Suggest correction