Oops, an error
Loading. Please wait.

Why So Lonely bass

799 views 9 this week
no commentswrite comment
1 2 3 4 5
2 more votes to show rating
add to favorites
×
Save as Personal and add changes to this tab that will be seen only by you. Learn more ›
×
You can save this tab as Personal to edit and correct it or add notes. All changes will be seen only by you. Learn more »
launch autoscroll
font size
0
reset
guitar tuner
edit
Autoscroll
slow
fast
+/-
esc
set tempo
stop
(It's basically the same chords as the guitar, but here's the tablature for easy! 
And you can hear the bass in the song to get a sense of the rhythm)

N.C
Intro is only on guitar.

[Verse 1]

    Em                    B
G|-----------------|--------------------------------|
D|--------9-9--7---|--------------------------------|
A|--7--7-----------|--------9-9--7------------------|
E|-----------------|--7--7--------------------------|


[Pre-Chorus]

   A   G   B     E   D
G|--------------------------------------------------|
D|---------------9----7-----------------------------|
A|-------------7----5-----------------9-------------|
E|-5---3---7--------------5---3---7---7-------------|



[Chorus]

    C             G            B            E 
G|-----------|------------|------------|--------------------|
D|---5-5-5-3-|------------|------------|------9---------7---|
A|-3---------|----5-5-5-3-|----9-9-9-7-|--7-7---7---5-5---5-|
E|-----------|--3---------|--7---------|--------------------|


[Verse 2]

    Em                    B
G|-----------------|--------------------------------|
D|--------9-9--7---|--------------------------------|
A|--7--7-----------|--------9-9--7------------------|
E|-----------------|--7--7--------------------------|


[Pre-Chorus]

   A   G   B     E   D
G|--------------------------------------------------|
D|---------------9----7-----------------------------|
A|-------------7----5-----------------9-------------|
E|-5---3---7--------------5---3---7---7-------------|


[Chorus]

    C             G            B            E          D
G|-----------|------------|------------|--------------------|
D|---5-5-5-3-|------------|------------|------9---------7---|
A|-3---------|----5-5-5-3-|----9-9-9-7-|--7-7---7---5-5---5-|
E|-----------|--3---------|--7---------|--------------------|


[Bridge]

     E              D             C                G             D(T.L)
G|-------------|-------------|-------------|------------------|----------------|
D|------9-9--7-|------7-7--5-|------5-5--3-|------------------|----------------|
A|-7--7--------|-5--5--------|-3--3--------|------5-5-3-3-5-5-|---5-5-5-5-5----|
E|-------------|-------------|-------------|--3-3-------------|----------------|

(Each chord need to be played fast)


[Chorus]

(And here's the last chorus, the 1st part is a little different. Follow the tab!)

   C     E         D         C       Bm
G|----|--------------------|----|-----------|
D|----|------9---------7---|----|-----------|
A|-3--|--7-7---7---5-5---5-|-3--|-----------|
E|----|--------------------|----|-5h7--7p9--|


(And then back to the original)

    C             G            B            E          D
G|-----------|------------|------------|--------------------|
D|---5-5-5-3-|------------|------------|------9---------7---|
A|-3---------|----5-5-5-3-|----9-9-9-7-|--7-7---7---5-5---5-|
E|-----------|--3---------|--7---------|--------------------|


[End]

(At the end, you can follow the keyboard in the original song or a guitar if you play with a friend!)

   C   G   B   E   D   C   G   B   Bm
G|---|---|---|-------|---|---|--------|
D|---|---|---|-------|---|---|--------|
A|-3-|---|---|-7---5-|-3-|---|-----9--|
E|---|-3-|-7-|-------|---|-3-|-7---7--|


************************************

| h   Hammer-on
| p   Pull-off

************************************

            
            
Suggest correction
Creating personal tab
Creating personal tab
You can edit any tab online and save it as your Personal.

You can edit, replace or remove any tab part or add personal notes – all changes will be seen only by you.

Personal tabs can be accessed anytime from any device, even offline.
Learn more »
Give kudos to tab author, rate the tab!
1 2 3 4 5
comments
print report bad tab
guest
You may want to rate the tab now too:
select rating
Wanna post a correction for this tab? Suggest correction