Oops, an error
Loading. Please wait.

Apron Strings tab

67 views 1 this week
no commentswrite comment
1 2 3 4 5
3 more votes to show rating
add to favorites
×
Save as Personal and add changes to this tab that will be seen only by you. Learn more ›
×
You can save this tab as Personal to edit and correct it or add notes. All changes will be seen only by you. Learn more »
launch autoscroll
font size
0
reset
how to read this tab
guitar tuner
edit
Autoscroll
slow
fast
+/-
esc
set tempo
stop
Author
Tab no.4 hope it's perfect
capo7
chords are c g f

vocal

[Solo]
e|------------------------------------|
B|---1--------1-----------------------|
G|-------0---------0------------------|    couple million times
D|-0---0----0----0--------------------|
A|------------------------------------|
E|------------------------------------|

e|-------0-----------------0--------------------------|
B|-----1---1-0------------1--1-0-----------------0-1--|
G|---0---------2-0-------0-------2-0----------0-2-----|
D|-0---------------3-2-0-------------3-2-0--2---------|
A|----------------------------------------------------|
E|----------------------------------------------------|

i'm not sure but it sounds like he repeats the exact same first part:
e|-------0-----------------0--------------------|
B|-----1---1-0------------1--1-0----------------|
G|---0---------2-0-------0-------2-0------------|
D|-0---------------3-2-0-------------3-2-0------|
A|----------------------------------------------|
E|----------------------------------------------|
dj plays same solo and singing starts:

It's all in a letter,
All in a letter I wrote you down,
Psycho in leather,
Killer kid Clever leave this town.

Is it any better Sunny weather,
Teeth all brown,
Kilowatt crystal under,
and over and up and down.


[Solo]

e|--------------------------------------------------|
B|--------------------------------------------------|
G|--------------------------------------------------|
D|-0--0-2-------0--0-2-----------0--0-2-------------|  x8
A|---3----0-------3----0-------3--3-----0-----------|
E|----------3------------3----------------0---------|

last part lyrics:
You pack your bags and leave,
But Daddy's got your glove and they all point at you

I guess your hand are clean,
Or should I say tied,
To the apron string,
But he's so Wise...


[Fast solo]

e|--------------------------------------------------------------------------|
B|10-10-10-10-10-10-10--8-8-8-8-8-8-8--5-5-5-5-5-5-5-5-5-5-5-5-5-5----------|
G|--------------------------------------------------------------------------|
D|--------------------------------------------------------------------------|
A|--------------------------------------------------------------------------|
E|--------------------------------------------------------------------------|

e|--------------------------------------------------------------------------|
B|10-10-10-10-10-10-10--8-8-8-8-8-8-8--5-5-5-5-5-5-5-5-5-5-5-5-5-5----------|
G|--------------------------------------------------------------------------|
D|--------------------------------------------------------------------------|
A|--------------------------------------------------------------------------|
E|--------------------------------------------------------------------------|

e|---------------------------------------------------------------------|
B|--5-5-5-5-5-5-5--3-3-3-3-3-3-3--5-5-5-5-5-5-5-3-3-3-3-3-3-3----------|
G|---------------------------------------------------------------------|
D|---------------------------------------------------------------------|
A|---------------------------------------------------------------------|
E|---------------------------------------------------------------------|

e|-----------------------------------------------------------------------------------------|
B|--5-5-5-5-5-5-5--8-8-8-8-8-8--5-5-5-5-5-5-5-5-5-5-5-5-5-5--------------------------------|
G|-----------------------------------------------------------------------------------------|
D|-----------------------------------------------------------------------------------------|
A|-----------------------------------------------------------------------------------------| x2
E|-----------------------------------------------------------------------------------------|


[Small solo]

e|--------------------------------------------------------------------------|
B|10-10-10-10-10-10-10--8-8-8-8-8-8-8--5-5-5-5-5-5-5-5-5-5-5-5-5-5----------|
G|--------------------------------------------------------------------------|
D|--------------------------------------------------------------------------|
A|--------------------------------------------------------------------------|
E|--------------------------------------------------------------------------|

e|--------------------------------------------------------------|
B|--------------------------------------------------------------|
G|--------------------------------------------------------------|
D|-----2--------------------------------------------------------|
A|--------------------------------------------------------------|
E|------------0-------------------------------------------------|


[Chorus/Solo]

e|------------------------------------------------|
B|------------------------------------------------|
G|------------------------------------------------|     til the end of the song
D|-0--0-2-------0--0-2-----------0--0-2-----------|
A|---3----0-------3----0-------3--3-----0---------|
E|----------3------------3----------------0-------|

            
            
Suggest correction
Creating personal tab
Creating personal tab
You can edit any tab online and save it as your Personal.

You can edit, replace or remove any tab part or add personal notes – all changes will be seen only by you.

Personal tabs can be accessed anytime from any device, even offline.
Learn more »
Give kudos to tab author, rate the tab!
1 2 3 4 5
comments
print report bad tab
guest
You may want to rate the tab now too:
select rating
Wanna post a correction for this tab? Suggest correction