Oops, an error
Loading. Please wait.
37 views 1 this week
no commentswrite comment
1 2 3 4 5
3 more votes to show rating
add to favorites
×
Save as Personal and add changes to this tab that will be seen only by you. Learn more ›
×
You can save this tab as Personal to edit and correct it or add notes. All changes will be seen only by you. Learn more »
launch autoscroll
font size
0
reset
how to read this tab
guitar tuner
edit
Autoscroll
slow
fast
+/-
esc
set tempo
stop
Author
Difficulty
in key of A
TUNING EADGBE

chords are f#m G and A no capo, 4beats for each
capo2: Em F G   4beats for each


[Bass at the beginning]

E|-----------------------------------------------------------------------------|
B|-----------------------------------------------------------------------------|
G|-----------------------------------------------------------------------------|repeat
D|-----------------------------------------------------------------------------|
A|-----------------------------------------------------------------------------|
E|-5-5-7-7-7-7-7-7---5-5-7-7-7-7-7-7-*3--5-5-7-7-7-7-7-7---10-10-10-10-9-9-9-9-| 

chords for the next verse are A-G-A-F#m 
capo2:G-F-G-Em   4beats for each


[0:56]

E|--9-7-9-7-9-7-9-7--------10-7-10-7-10-7-10-7------9-7-9-7-9-7-9-7---------------------------|
B|--------------------------------------------------------------------7-5-7-5-7-5-7-5|  - *2--|
G|--------------------------------------------------------------------------------------------|
D|--------------------------------------------------------------------------------------------|
A|--------------------------------------------------------------------------------------------|
E|--------------------------------------------------------------------------------------------|

E|--9-7-9-7-9-7-9-7--------10-7-10-7-10-7-10-7------9-7-9-7-9-7-9-7---------------------------|
B|--------------------------------------------------------------------7-5-7-5-7-5-7-5|   *2---|CUT!!
G|--------------------------------------------------------------------------------------------|
D|--------------------------------------------------------------------------------------------|
A|--------------------------------------------------------------------------------------------|
E|--------------------------------------------------------------------------------------------|


[Verse]

basically G bar chord


E|-----------------|
B|-----3--------3--|
G|---4--------4----|                .... keeps going with the bass
D| 5--------5------|
A|-----------------|
E|-----------------|

chords for this verse are F#m-G-A-F#m-G-A-F#m-G-A 4beats for each


 E|-9-7-9-7-9-7-9-7--------10-7-10-7-10-7-10-7------9-7-9-7-9-7-9-7---------------------|
 B| ------------------------------------------------------------------ 7-5-7-5-7-5-7-5--|
 G|-------------------------------------------------------------------------------------|
 D|-------------------------------------------------------------------------------------|
 A|-------------------------------------------------------------------------------------|
 E|-------------------------------------------------------------------------------------|

 E|-9-7-9-7-9-7-9-7--------10-7-10-7-10-7-10-7------9-7-9-7-9-7-9-7---------------------|
 B| ------------------------------------------------------------------ 7-5-7-5-7-5-7-5--|
 G|-------------------------------------------------------------------------------------|
 D|-------------------------------------------------------------------------------------|
 A|-------------------------------------------------------------------------------------|
 E|-------------------------------------------------------------------------------------|
 play the last verse and kill it slowly

sound effect starts in the next beat at 2:27


 E|2s5---3-2-------2s5---3-2--------2s5---3-2------3s7---5-3--|
 B|-----------------------------------------------------------|
 G|-----------------------------------------------------------|
 D|-----------------------------------------------------------|
 A|-----------------------------------------------------------|
 E|-----------------------------------------------------------|   keeps going while 


[Solo]

 E|-7-7-7-7-7-7-7----9-9-9-9-9-9-9-9-5-5-5-5-5-5-5----7-7-7-7-7-7-7-7-9-9-9-9-9-9-9-9-5-5-5-5-5-5-5--|
 B|------------------------------------------------------------------ -------------------------------|
 G|--------------------------------------------------------------------------------------------------|
 D|--------------------------------------------------------------------------------------------------|
 A|--------------------------------------------------------------------------------------------------|
 E|--------------------------------------------------------------------------------------------------|

 E| 7-7-7-7-7-7-7-7----------------9b10---------2s5-5-5-5-5-5-5-5|
 B|--------------------------------------------------------------|
 G|--------------------------------------------------------------|
 D|--------------------------------------------------------------|
 A|--------------------------------------------------------------|
 E|---------------------9-9-9-9-9-9------------------------------|

bass plays back...
E|-------------------------------------------------------------------------------|
B|-------------------------------------------------------------------------------|
G|-------------------------------------------------------------------------------|
D|-------------------------------------------------------------------------------|
A|-------------------------------------------------------------------------------|
E|5-5-7-7-7-7-7-7---5-5-7-7-7-7-7-7 *3--5-5-7-7-7-7-7-7---10-10-10-10-9-9-9-9----|


********************************************

B=Bend
s= slide

********************************************

            
            
Suggest correction
Creating personal tab
Creating personal tab
You can edit any tab online and save it as your Personal.

You can edit, replace or remove any tab part or add personal notes – all changes will be seen only by you.

Personal tabs can be accessed anytime from any device, even offline.
Learn more »
Give kudos to tab author, rate the tab!
1 2 3 4 5
comments
print report bad tab
guest
You may want to rate the tab now too:
select rating
Wanna post a correction for this tab? Suggest correction