Oops, an error
Loading. Please wait.

Fast Car tab

version 1
version 1

Whole song

11,752 views 9 this week
2 commentsread comments
1 2 3 4 5
1 last vote to show rating
add to favorites
×
Save as Personal and add changes to this tab that will be seen only by you. Learn more ›
×
You can save this tab as Personal to edit and correct it or add notes. All changes will be seen only by you. Learn more »
launch autoscroll
font size
0
reset
how to read this tab
guitar tuner
edit
Autoscroll
slow
fast
+/-
esc
set tempo
stop
Author
Hey, this is my first tab and the first tab of this music on the internet. I hope
you find it good and accurate.

Intro and verse:

      Am
e|-------------------------------------------------------------|
B|-------------------------------------------------------------|
G|--------5-----------------5------------5--------------5------|
D|------7---7-7-7--------7----7-7------7---7-7-7------7---7-7--|
A|----7---------------7--------------7--------------7----------|
E|-------------------------------------------------------------|

      G
e|-------------------------------------------------------------|
B|-------------------------------------------------------------|
G|--------4-----------------4------------4--------------4------|
D|------5---5-5-5--------5----5-5------5---5-5-5------5---5-5--|
A|----5---------------5--------------5--------------5----------|
E|-------------------------------------------------------------|

Chorus:

Am                         G
You gotta be no billionaire
Am                           Am
To get a ticket up to the moon
G                            Am
We all know somebody up there
G                      G
You need a helping hand
                     Am
Look, come right here
Am                               G
To help you see clearly now, yeah
Am                               Am
To help you see clearly now, yeah
G                               Am
I hope you see clearly now, yeah

G  F  Em

First Paul Simon's part:

When that fast car picks you up, you will have no choice...

e|-----------4--------|
B|------4h6----6------|
G|--------------------|
D|--------------------|
A|--------------------|
E|--------------------|

You will hear the tires screaming but you will have no voice...

e|-----6--4/3-3-------|
B|---------------6p4--|
G|--------------------|
D|--------------------|
A|--------------------|
E|--------------------|

When that fast car picks you up, you will weep and smile...


e|---------4-3/4------|
B|-----4h6------------|
G|--------------------|
D|--------------------|
A|--------------------|
E|--------------------|

Second Paul Simon's part:


When that fast car picks you up, you will have no choice...

e|-------4--3---------|
B|---4h6------4--4h6--|
G|--------------------|
D|--------------------|
A|--------------------|
E|--------------------|

You will hear the tires screaming but you will have no voice...

e|---------------------|
B|---4p3--3--3h4-------|
G|---------------------|
D|---------------------|
A|---------------------|
E|---------------------|

When that fast car picks you up, you will weep and smile and...

e|-----------4--------|
B|------4h6----6------|
G|--------------------|
D|--------------------|
A|--------------------|
E|--------------------|


That's it, i hope you like it.

            
            
Suggest correction
Creating personal tab
Creating personal tab
You can edit any tab online and save it as your Personal.

You can edit, replace or remove any tab part or add personal notes – all changes will be seen only by you.

Personal tabs can be accessed anytime from any device, even offline.
Learn more »
Give kudos to tab author, rate the tab!
1 2 3 4 5
comments
print report bad tab
2 comments total.
0 reply
newbi28 10 May 06, 2008 07:40 PM

is this a finger pickin song or a pick or which is better cuz it sounds to me like finger pickin you know?

0 reply
mullmeister 10 Oct 27, 2009 02:28 PM

I think its a pick. Thats what i play with anyway. Also think the tab is quite off. Ill edit below

guest
You may want to rate the tab now too:
select rating
Wanna post a correction for this tab? Suggest correction