Oops, an error
Loading. Please wait.

Sweetest Girl tab

version 1
version 1

Whole song

Interactive

36,222 views 3 this week
1 commentread comment
1 2 3 4 5
x 6
add to favorites
×
Save as Personal and add changes to this tab that will be seen only by you. Learn more ›
×
You can save this tab as Personal to edit and correct it or add notes. All changes will be seen only by you. Learn more »
launch autoscroll
font size
0
reset
how to read this tab
guitar tuner
edit
Autoscroll
slow
fast
+/-
esc
set tempo
stop
Author
 --------------------------------
|SWEETEST GIRL (ACOUSTIC VERSION)|
|~~~~~~~~~~~~~~~~~~~~~~~~~~~~~~~~|
|Wyclef Jean, Niia & Jerry Wonda.|
 --------------------------------

Tabbed by: shaq147
Pretty much 100% correct.

Note that the lyrics and notes do not correspond EXACTLY.

Played with a clean electric guitar.

INTRO (Wyclef Jean)

One, two, three, four
-4--4--4\3--------------------------------------------------------------------------------|
------------6--4--6-/8\-6--4--------------------------------------------------------------|
------------------------------5/6\5--3-----3----------------------------------------------|
----------------------------------------6-----6--3--6--3-----3----------------------------|
----------------------------------------------------------6-----6--3--6--3-----3----------|
----------------------------------------------------------------------------6-----6--4--6-|

------------------------------3--4--6/8\6--4--3/4\3-----3h4p3-----3--4--3-----3--4p3-|
------------------------4--6-------------------------6---------6-----------6---------|
----------------3--5/6---------------------------------------------------------------|
-------3--5--6-----------------------------------------------------------------------|
-3--6--------------------------------------------------------------------------------|
-------------------------------------------------------------------------------------|
                                                                                         
    One, Two, three, four
--3h4p3---3h4p3---3h4p3---3h4p3----4------3----------8--8-------6--6-----------------------------|
6-------6-------6-------6--------6-----5-------------------------------------4--------4--4------4|
-----------------------------------------------5/8---------/6---------6~~\5-------5----------5---|
-------------------------------------------------------------------------------------------------|
-------------------------------------------------------------------------------------------------|
-------------------------------------------------------------------------------------------------|

VERSE 1 (Sang by Naiia & Wyclef Jean)

Oh, oh, oh,  oh, oh, oh,  oh, oh,      oh, oh
---------------------------------------------------|
---------------------------------------------------|
-----1------------8------------6------------5---6--|
3--3-3-x-x-x-8--8-8-x-x-x-6--6-6-x-x-x-6--6---6----|
3--3-3-x-x-x-6--6-6-x-x-x-4--4-4-x-x-x-6--6--------|
1--1-1-x-x-x-6--6-6-x-x-x-4--4-4-x-x-x-4--4--------|
*  * *       *  * *       *  * *       *  *   *

Ah. ah, ah,  ah, ah, ah,  ah ah,      ha, ah   (yeah)
------------------------------------------------------|
------------------------------------------------------|
-----1------------8------------6---------------5---5--|
3--3-3-x-x-x-8--8-8-x-x-x-6--6-6-x-x-x-6--6--x-6-x-6--|
3--3-3-x-x-x-6--6-6-x-x-x-4--4-4-x-x-x-6--6--x-6-x-6--|
1--1-1-x-x-x-6--6-6-x-x-x-4--4-4-x-x-x-4--4--x-4-x-4--|
*  * *       *  * *       *  * *       *  *    *   *

      (ain't never hear it like this)      (sweetest girl)
Ah, ah, ha, ah, ah, ah,  ah, ah,      ha, ah
------------------------------------------------------|
------------------------------------------------------|
-----1------------8------------6---------------5---5--|
3--3-3-x-x-x-8--8-8-x-x-x-6--6-6-x-x-x-6--6--x-6-x-6--|
3--3-3-x-x-x-6--6-6-x-x-x-4--4-4-x-x-x-6--6--x-6-x-6--|
1--1-1-x-x-x-6--6-6-x-x-x-4--4-4-x-x-x-4--4--x-4-x-4--|
*  * *       *  * *       *  * *       *  *    *   *

Oh, oh, oh,  ah, ah, ha,  ah, ah oh,   ha, ah
------------------------------------------------------|
------------------------------------------------------|
-----1------------8------------6-------------5---5----|
3--3-3-x-x-x-8--8-8-x-x-x-6--6-6-x-x-x-6--6----x---x--|
3--3-3-x-x-x-6--6-6-x-x-x-4--4-4-x-x-x-6--6----x---x--|
1--1-1-x-x-x-6--6-6-x-x-x-4--4-4-x-x-x-4--4----x---x--|
*  * *       *  * *       *  * *       *  *

High school, she was that girl that make me do the hula hoop around the gym, (just to 
a peek again, she's a ten)
------------------------------------------------------|
------------------------------------------------------|
-----1------------8------------6---------------5---5--|
3--3-3-x-x-x-8--8-8-x-x-x-6--6-6-x-x-x-6--6--x-6-x-6--|
3--3-3-x-x-x-6--6-6-x-x-x-4--4-4-x-x-x-6--6--x-6-x-6--|
1--1-1-x-x-x-6--6-6-x-x-x-4--4-4-x-x-x-4--4--x-4-x-4--|
*  * *       *  * *       *  * *       *  *    *   *

High school, she was that girl that make me do the hula hoop around the gym, (just to 
a peek again, she's a ten)
------------------------------------------------------|
------------------------------------------------------|
-----1------------8------------6---------------5---5--|
3--3-3-x-x-x-8--8-8-x-x-x-6--6-6-x-x-x-6--6--x-6-x-6--|
3--3-3-x-x-x-6--6-6-x-x-x-4--4-4-x-x-x-6--6--x-6-x-6--|
1--1-1-x-x-x-6--6-6-x-x-x-4--4-4-x-x-x-4--4--x-4-x-4--|
*  * *       *  * *       *  * *       *  *    *   *

Never thought she would come and work for the president, mister George Washington, 
my money at?)
------------------------------------------------------|
------------------------------------------------------|
-----1------------8------------6---------------5---5--|
3--3-3-x-x-x-8--8-8-x-x-x-6--6-6-x-x-x-6--6--x-6-x-6--|
3--3-3-x-x-x-6--6-6-x-x-x-4--4-4-x-x-x-6--6--x-6-x-6--|
1--1-1-x-x-x-6--6-6-x-x-x-4--4-4-x-x-x-4--4--x-4-x-4--|
*  * *       *  * *       *  * *       *  *    *   *

                        (he'd, call all all all)
She, thoug oh oh, ought, he'd, call all all all
------------------------------------------------------|
------------------------------------------------------|
-----1------------8------------6---------------5---5--|
3--3-3-x-x-x-8--8-8-x-x-x-6--6-6-x-x-x-6--6--x-6-x-6--|
3--3-3-x-x-x-6--6-6-x-x-x-4--4-4-x-x-x-6--6--x-6-x-6--|
1--1-1-x-x-x-6--6-6-x-x-x-4--4-4-x-x-x-4--4--x-4-x-4--|
*  * *       *  * *       *  * *       *  *    *   *

                                        (rainy day)
She had a good day, bad day, sunny day, rainy day, all she wanna know is, where my money at?
------------------------------------------------------|
------------------------------------------------------|
-----1------------8------------6---------------5---5--|
3--3-3-x-x-x-8--8-8-x-x-x-6--6-6-x-x-x-6--6--x-6-x-6--|
3--3-3-x-x-x-6--6-6-x-x-x-4--4-4-x-x-x-6--6--x-6-x-6--|
1--1-1-x-x-x-6--6-6-x-x-x-4--4-4-x-x-x-4--4--x-4-x-4--|
*  * *       *  * *       *  * *       *  *    *   *

Closed legs, don't get fed, go out there, and make my bread, all you wanna know is, 
my money at?
------------------------------------------------------|
------------------------------------------------------|
-----1------------8------------6---------------5---5--|
3--3-3-x-x-x-8--8-8-x-x-x-6--6-6-x-x-x-6--6--x-6-x-6--|
3--3-3-x-x-x-6--6-6-x-x-x-4--4-4-x-x-x-6--6--x-6-x-6--|
1--1-1-x-x-x-6--6-6-x-x-x-4--4-4-x-x-x-4--4--x-4-x-4--|
*  * *       *  * *       *  * *       *  *    *   *

She ended up in a road car, bruised up, and scarred hard, all you wanna know is, where 
money at?
------------------------------------------------------|
------------------------------------------------------|
-----1------------8------------6---------------5---5--|
3--3-3-x-x-x-8--8-8-x-x-x-6--6-6-x-x-x-6--6--x-6-x-6--|
3--3-3-x-x-x-6--6-6-x-x-x-4--4-4-x-x-x-6--6--x-6-x-6--|
1--1-1-x-x-x-6--6-6-x-x-x-4--4-4-x-x-x-4--4--x-4-x-4--|
*  * *       *  * *       *  * *       *  *    *   *

   (thoug oh oh, ought, he'd call all all all)
She thoug oh oh, ouhgt, he'd call all all all
------------------------------------------------------|
------------------------------------------------------|
-----1------------8------------6---------------5---5--|
3--3-3-x-x-x-8--8-8-x-x-x-6--6-6-x-x-x-6--6--x-6-x-6--|
3--3-3-x-x-x-6--6-6-x-x-x-4--4-4-x-x-x-6--6--x-6-x-6--|
1--1-1-x-x-x-6--6-6-x-x-x-4--4-4-x-x-x-4--4--x-4-x-4--|
*  * *       *  * *       *  * *       *  *    *   *


CHORUS (Sang by Wyclef Jean)

I'mma tell you, like Wu told me, cash rules everythin', around me
------------------------------------------------------|
------------------------------------------------------|
-----1------------8------------6---------------5---5--|
3--3-3-x-x-x-8--8-8-x-x-x-6--6-6-x-x-x-6--6--x-6-x-6--|
3--3-3-x-x-x-6--6-6-x-x-x-4--4-4-x-x-x-6--6--x-6-x-6--|
1--1-1-x-x-x-6--6-6-x-x-x-4--4-4-x-x-x-4--4--x-4-x-4--|
*  * *       *  * *       *  * *       *  *    *   *

Singin' dollar dollar bill y'all (dollar dollar bill y'all), dollar dollar bill y'all 
(dollar dollar bill ya)
------------------------------------------------------|
------------------------------------------------------|
-----1------------8------------6---------------5---5--|
3--3-3-x-x-x-8--8-8-x-x-x-6--6-6-x-x-x-6--6--x-6-x-6--|
3--3-3-x-x-x-6--6-6-x-x-x-4--4-4-x-x-x-6--6--x-6-x-6--|
1--1-1-x-x-x-6--6-6-x-x-x-4--4-4-x-x-x-4--4--x-4-x-4--|
*  * *       *  * *       *  * *       *  *    *   *

               (like Wu told me)
I'mma tell you, like Wu told me, cash rules everythin', around me
------------------------------------------------------|
------------------------------------------------------|
-----1------------8------------6---------------5---5--|
3--3-3-x-x-x-8--8-8-x-x-x-6--6-6-x-x-x-6--6--x-6-x-6--|
3--3-3-x-x-x-6--6-6-x-x-x-4--4-4-x-x-x-6--6--x-6-x-6--|
1--1-1-x-x-x-6--6-6-x-x-x-4--4-4-x-x-x-4--4--x-4-x-4--|
*  * *       *  * *       *  * *       *  *    *   *

Singin' dollar dollar bill y'all (dollar dollar bill y'all), dollar dollar bill y'all yeah.
------------------------------------------------------|
------------------------------------------------------|
-----1------------8------------6---------------5---5--|
3--3-3-x-x-x-8--8-8-x-x-x-6--6-6-x-x-x-6--6--x-6-x-6--|
3--3-3-x-x-x-6--6-6-x-x-x-4--4-4-x-x-x-6--6--x-6-x-6--|
1--1-1-x-x-x-6--6-6-x-x-x-4--4-4-x-x-x-4--4--x-4-x-4--|
*  * *       *  * *       *  * *       *  *    *   *


VERSE 2 (Sang by Niia)

Pimpin got harder coz girls got smarter, on the strip is not somethin' they wanna be 
of
------------------------------------------------------|
------------------------------------------------------|
-----1------------8------------6---------------5---5--|
3--3-3-x-x-x-8--8-8-x-x-x-6--6-6-x-x-x-6--6--x-6-x-6--|
3--3-3-x-x-x-6--6-6-x-x-x-4--4-4-x-x-x-6--6--x-6-x-6--|
1--1-1-x-x-x-6--6-6-x-x-x-4--4-4-x-x-x-4--4--x-4-x-4--|
*  * *       *  * *       *  * *       *  *    *   *

Rather be up in the club, shakin' for a thug for triple times the money and spendin' it 
they wanna
------------------------------------------------------|
------------------------------------------------------|
-----1------------8------------6---------------5---5--|
3--3-3-x-x-x-8--8-8-x-x-x-6--6-6-x-x-x-6--6--x-6-x-6--|
3--3-3-x-x-x-6--6-6-x-x-x-4--4-4-x-x-x-6--6--x-6-x-6--|
1--1-1-x-x-x-6--6-6-x-x-x-4--4-4-x-x-x-4--4--x-4-x-4--|
*  * *       *  * *       *  * *       *  *    *   *

They got they mind on they money, money on they mind, they got they finger on the 
hand on the nines
------------------------------------------------------|
------------------------------------------------------|
-----1------------8------------6---------------5---5--|
3--3-3-x-x-x-8--8-8-x-x-x-6--6-6-x-x-x-6--6--x-6-x-6--|
3--3-3-x-x-x-6--6-6-x-x-x-4--4-4-x-x-x-6--6--x-6-x-6--|
1--1-1-x-x-x-6--6-6-x-x-x-4--4-4-x-x-x-4--4--x-4-x-4--|
*  * *       *  * *       *  * *       *  *    *   *

                                              (yeah)
See everyday they feel the struggle, but stayin' on the ground, don't take it to and 
us, and thats the bottom line
------------------------------------------------------|
------------------------------------------------------|
-----1------------8------------6---------------5---5--|
3--3-3-x-x-x-8--8-8-x-x-x-6--6-6-x-x-x-6--6--x-6-x-6--|
3--3-3-x-x-x-6--6-6-x-x-x-4--4-4-x-x-x-6--6--x-6-x-6--|
1--1-1-x-x-x-6--6-6-x-x-x-4--4-4-x-x-x-4--4--x-4-x-4--|
*  * *       *  * *       *  * *       *  *    *   *

   (I know)                                (they move slow)
But I know, there's a drought on the block, they move slow, gettin' pressure from cops
------------------------------------------------------|
------------------------------------------------------|
-----1------------8------------6---------------5---5--|
3--3-3-x-x-x-8--8-8-x-x-x-6--6-6-x-x-x-6--6--x-6-x-6--|
3--3-3-x-x-x-6--6-6-x-x-x-4--4-4-x-x-x-6--6--x-6-x-6--|
1--1-1-x-x-x-6--6-6-x-x-x-4--4-4-x-x-x-4--4--x-4-x-4--|
*  * *       *  * *       *  * *       *  *    *   *

(They don't know)
They don't know, you got to lay low, cuz twenty five to life is no joke
------------------------------------------------------|
------------------------------------------------------|
-----1------------8------------6---------------5---5--|
3--3-3-x-x-x-8--8-8-x-x-x-6--6-6-x-x-x-6--6--x-6-x-6--|
3--3-3-x-x-x-6--6-6-x-x-x-4--4-4-x-x-x-6--6--x-6-x-6--|
1--1-1-x-x-x-6--6-6-x-x-x-4--4-4-x-x-x-4--4--x-4-x-4--|
*  * *       *  * *       *  * *       *  *    *   *

(WYCLEF JEAN)
To all my real gorilla's thuggin', on top of corners everyday strugglin'
------------------------------------------------------|
------------------------------------------------------|
-----1------------8------------6---------------5---5--|
3--3-3-x-x-x-8--8-8-x-x-x-6--6-6-x-x-x-6--6--x-6-x-6--|
3--3-3-x-x-x-6--6-6-x-x-x-4--4-4-x-x-x-6--6--x-6-x-6--|
1--1-1-x-x-x-6--6-6-x-x-x-4--4-4-x-x-x-4--4--x-4-x-4--|
*  * *       *  * *       *  * *       *  *    *   *

(NIIA)
To all the women makin' money, washin' them dollar bills like laundry
------------------------------------------------------|
------------------------------------------------------|
-----1------------8------------6---------------5---5--|
3--3-3-x-x-x-8--8-8-x-x-x-6--6-6-x-x-x-6--6--x-6-x-6--|
3--3-3-x-x-x-6--6-6-x-x-x-4--4-4-x-x-x-6--6--x-6-x-6--|
1--1-1-x-x-x-6--6-6-x-x-x-4--4-4-x-x-x-4--4--x-4-x-4--|
*  * *       *  * *       *  * *       *  *    *   *

CHORUS (Sang by Wyclef Jean)

I'mma tell you, like Wu told me, cash rules everythin', around me
------------------------------------------------------|
------------------------------------------------------|
-----1------------8------------6---------------5---5--|
3--3-3-x-x-x-8--8-8-x-x-x-6--6-6-x-x-x-6--6--x-6-x-6--|
3--3-3-x-x-x-6--6-6-x-x-x-4--4-4-x-x-x-6--6--x-6-x-6--|
1--1-1-x-x-x-6--6-6-x-x-x-4--4-4-x-x-x-4--4--x-4-x-4--|
*  * *       *  * *       *  * *       *  *    *   *

Singin' dollar dollar bill y'all (dollar dollar bill ya), dollar dollar bill y'all yeah, 
dollar bill ya)
------------------------------------------------------|
------------------------------------------------------|
-----1------------8------------6---------------5---5--|
3--3-3-x-x-x-8--8-8-x-x-x-6--6-6-x-x-x-6--6--x-6-x-6--|
3--3-3-x-x-x-6--6-6-x-x-x-4--4-4-x-x-x-6--6--x-6-x-6--|
1--1-1-x-x-x-6--6-6-x-x-x-4--4-4-x-x-x-4--4--x-4-x-4--|
*  * *       *  * *       *  * *       *  *    *   *

                    (Wu told me)
I'mma tell you, like Wu told me, cash rules everythin', around me
------------------------------------------------------|
------------------------------------------------------|
-----1------------8------------6---------------5---5--|
3--3-3-x-x-x-8--8-8-x-x-x-6--6-6-x-x-x-6--6--x-6-x-6--|
3--3-3-x-x-x-6--6-6-x-x-x-4--4-4-x-x-x-6--6--x-6-x-6--|
1--1-1-x-x-x-6--6-6-x-x-x-4--4-4-x-x-x-4--4--x-4-x-4--|
*  * *       *  * *       *  * *       *  *    *   *

Singin' dollar dollar bill y'all (dollar dollar bill ya), dollar dollar bill y'all yeah. 
dollar bill ya)
------------------------------------------------------|
------------------------------------------------------|
-----1------------8------------6---------------5---5--|
3--3-3-x-x-x-8--8-8-x-x-x-6--6-6-x-x-x-6--6--x-6-x-6--|
3--3-3-x-x-x-6--6-6-x-x-x-4--4-4-x-x-x-6--6--x-6-x-6--|
1--1-1-x-x-x-6--6-6-x-x-x-4--4-4-x-x-x-4--4--x-4-x-4--|
*  * *       *  * *       *  * *       *  *    *   *


BRIDGE (Sang by  Niia & Wyclef Jean)

Ah, ah, ah,  ah, ah, ah,  ah ah,      ha, ah
-------------------------------------------------|
-------------------------------------------------|
-----1------------8------------6------------5h6--|
3--3-3-x-x-x-8--8-8-x-x-x-6--6-6-x-x-x-6--6------|
3--3-3-x-x-x-6--6-6-x-x-x-4--4-4-x-x-x-6--6------|
1--1-1-x-x-x-6--6-6-x-x-x-4--4-4-x-x-x-4--4------|
*  * *       *  * *       *  * *       *  *   *

          (come on)                  (dollar dollar dollar bill)
La, la, la,  ah, ah, ah,  ah ah,      ha, ah
------------------------------------------------------|
------------------------------------------------------|
-----1------------8------------6----------------------|
3--3-3-x-x-x-8--8-8-x-x-x-6--6-6-x-x-x-6--6--x-6-x-6--|
3--3-3-x-x-x-6--6-6-x-x-x-4--4-4-x-x-x-6--6--x-6-x-6--|
1--1-1-x-x-x-6--6-6-x-x-x-4--4-4-x-x-x-4--4--x-4-x-4--|
*  * *       *  * *       *  * *       *  *    *   *

     (woow, woow, woow, woow, woow, dollar dollar dollar bill)
Ah, ah, ha,  ah, ah, ah,  ah, ah,      ha, ah, la
------------------------------------------------------|
------------------------------------------------------|
-----1------------8------------6---------------5---5--|
3--3-3-x-x-x-8--8-8-x-x-x-6--6-6-x-x-x-6--6--x-6-x-6--|
3--3-3-x-x-x-6--6-6-x-x-x-4--4-4-x-x-x-6--6--x-6-x-6--|
1--1-1-x-x-x-6--6-6-x-x-x-4--4-4-x-x-x-4--4--x-4-x-4--|
*  * *       *  * *       *  * *       *  *    *   *

   (yeah)                                   (break it down)
La, la, la,  ah, ah, ha,  la, da      la, da
------------------------------------------------------|
------------------------------------------------------|
-----1------------8------------6-------------5---5----|
3--3-3-x-x-x-8--8-8-x-x-x-6--6-6-x-x-x-6--6--6-x-6-x--|
3--3-3-x-x-x-6--6-6-x-x-x-4--4-4-x-x-x-6--6--6-x-6-x--|
1--1-1-x-x-x-6--6-6-x-x-x-4--4-4-x-x-x-4--4--4-x-4-x--|
*  * *       *  * *       *  * *       *  *  *   *


BREAKDOWN (Sang by Niia)

She used to be the sweetest girl ever, now she's like sour armaretto
------------------------------------------------------|
------------------------------------------------------|
------------------------------------------------------|
------------------------------------------------------|
------------------------------------------------------|
------------------------------------------------------|

She wears a dress to the T like a leather
------------------------------------------------------|
------------------------------------------------------|
------------------------------------------------------|
------------------------------------------------------|
------------------------------------------------------|
------------------------------------------------------|

                                                   (yeah niia)
If you make her rain, she will be under the wheather
------------------------------------------------------|
------------------------------------------------------|
------------------------------------------------------|
------------------------------------------------------|
------------------------------------------------------|
------------------------------------------------------|

(PLAY SOFTLY)
Heh, she used to run track back in high school, now she tricks on the track right by school
----------------------------------------------------------------------------|
----------------------------------------------------------------------------|
---1-------------------6-----------------------6-----------------------5----|
---3-------------------8-----------------------6-----------------------6----|
---3-------------------8-----------------------4-----------------------6----|
---1-------------------6-----------------------4-----------------------4----|

(PLAY SOFTLY, GRADUATELY GETTING LOUDER)
She take a loss cuz she don't wanna see her child lose, so respect her or pay up for the 
used
------------------------------------------------------|
------------------------------------------------------|
-----1------------8------------6-------------5---5----|
3--3-3-x-x-x-8--8-8-x-x-x-6--6-6-x-x-x-6--6--6-x-6-x--|
3--3-3-x-x-x-6--6-6-x-x-x-4--4-4-x-x-x-6--6--6-x-6-x--|
1--1-1-x-x-x-6--6-6-x-x-x-4--4-4-x-x-x-4--4--4-x-4-x--|
*  * *       *  * *       *  * *       *  *  *   *

And the she runs to the pastor, and he tells her there will be a new chapter
------------------------------------------------------|
------------------------------------------------------|
-----1------------8------------6-------------5---5----|
3--3-3-x-x-x-8--8-8-x-x-x-6--6-6-x-x-x-6--6--6-x-6-x--|
3--3-3-x-x-x-6--6-6-x-x-x-4--4-4-x-x-x-6--6--6-x-6-x--|
1--1-1-x-x-x-6--6-6-x-x-x-4--4-4-x-x-x-4--4--4-x-4-x--|
*  * *       *  * *       *  * *       *  *  *   *

                                                     (I'mma tell you..)
She dont feel no different after, then he asked her, where my money at?
------------------------------------------------------|
------------------------------------------------------|
-----1------------8------------6-------------5---5----|
3--3-3-x-x-x-8--8-8-x-x-x-6--6-6-x-x-x-6--6--6-x-6-x--|
3--3-3-x-x-x-6--6-6-x-x-x-4--4-4-x-x-x-6--6--6-x-6-x--|
1--1-1-x-x-x-6--6-6-x-x-x-4--4-4-x-x-x-4--4--4-x-4-x--|
*  * *       *  * *       *  * *       *  *  *   *


CHORUS (Sang by Wyclef Jean)

I'mma tell you, like Wu told me, cash rules everythin', around me
------------------------------------------------------|
------------------------------------------------------|
-----1------------8------------6---------------5---5--|
3--3-3-x-x-x-8--8-8-x-x-x-6--6-6-x-x-x-6--6--x-6-x-6--|
3--3-3-x-x-x-6--6-6-x-x-x-4--4-4-x-x-x-6--6--x-6-x-6--|
1--1-1-x-x-x-6--6-6-x-x-x-4--4-4-x-x-x-4--4--x-4-x-4--|
*  * *       *  * *       *  * *       *  *    *   *

Singin' dollar dollar bill y'all (dollar dollar bill ya), dollar dollar bill y'all yeah, 
dollar bill ya)
------------------------------------------------------|
------------------------------------------------------|
-----1------------8------------6---------------5---5--|
3--3-3-x-x-x-8--8-8-x-x-x-6--6-6-x-x-x-6--6--x-6-x-6--|
3--3-3-x-x-x-6--6-6-x-x-x-4--4-4-x-x-x-6--6--x-6-x-6--|
1--1-1-x-x-x-6--6-6-x-x-x-4--4-4-x-x-x-4--4--x-4-x-4--|
*  * *       *  * *       *  * *       *  *    *   *

                    (Wu told me, cash rules everythin, around me)
I'mma tell you, like Wu told me, cash rules everythin', around me
------------------------------------------------------|
------------------------------------------------------|
-----1------------8------------6---------------5---5--|
3--3-3-x-x-x-8--8-8-x-x-x-6--6-6-x-x-x-6--6--x-6-x-6--|
3--3-3-x-x-x-6--6-6-x-x-x-4--4-4-x-x-x-6--6--x-6-x-6--|
1--1-1-x-x-x-6--6-6-x-x-x-4--4-4-x-x-x-4--4--x-4-x-4--|
*  * *       *  * *       *  * *       *  *    *   *

Singin' dollar dollar bill y'all (dollar dollar bill ya), dollar dollar bill y'all yeah. 
dollar bill ya)
------------------------------------------------------|
------------------------------------------------------|
-----1------------8------------6---------------5---5--|
3--3-3-x-x-x-8--8-8-x-x-x-6--6-6-x-x-x-6--6--x-6-x-6--|
3--3-3-x-x-x-6--6-6-x-x-x-4--4-4-x-x-x-6--6--x-6-x-6--|
1--1-1-x-x-x-6--6-6-x-x-x-4--4-4-x-x-x-4--4--x-4-x-4--|
*  * *       *  * *       *  * *       *  *    *   *


OUTRO

Keep it goin'
------------4--4--4-----------4--------------------------------------------|
---------------------6---4/6------4----------------------------------4--6--|
-------------------------------------5-------5--6-----5--6-----5--6--------|
-----------------------------------------/6-------/6-------/6--------------|
---------------------------------------------------------------------------|
---------------------------------------------------------------------------|

4--4--4--6---8--8---6---6--6--4---3---------------------------|
-------------------------------------6---4---6-/8---6---------|
--------------------------------------------------------8--5--|
--------------------------------------------------------------|
--------------------------------------------------------------|
--------------------------------------------------------------|

Oh ah ah,  ah ah ah,   la, la,  la, la
------8--8-------6--6-----------------------------------------|
------------------------9--8--6---4-4/6--4------------4--4----|
5/8---------8/6-----------------------------5------5----------|
-----------------------------------------------6--------------|
--------------------------------------------------------------|
--------------------------------------------------------------|

la, la, la, la, la, la, la, la, la, la, la, la, la, la, la, la, la, la, da, da, da, da, 
la, la, la, la, la, la, la
----------------------------------------------------------------------------------
----------------------------------------------------------------------------------
1----1---8----8---6----6---5----5--6---1----1---8----8---6----6---5----5--6---1---
3--x-3---8--x-8---6--x-6---6--x--x-----3--x-3---8--x-8---6--x-6---6--x--x-----3--
3--x-3---6--x-6---4--x-4---6--x--x-----3--x-3---6--x-6---4--x-----6--x--x-----3--
1--x-1---6--x-6------x-----4--x--------1--x-1---6--x-6---4--x-----4--x--------1--
*    *   *    *   *    *   *    *      *
-----------------------------------|
-----------------------------------|
-1---8----8---6----6---5----5---5--|
x-3---8--x-8---6--x-6---6--x-6-x-6--|
x-3---6--x-6---4--x-----6--x-6-x-6--|
x-1---6--x-6---4--x-----4--x-4-x-4--|

Ladies and gentlemen you have been tuned to the sound of, Wyclef Jean, Niia,
-----------------------------------------------------|
-----------------------------------------------------|
1----1---1---8----8---8---6----6---6---5----5h6-5h6--|
3--x-3-x-3---8--x-8-x-8---6--x-6-x-6---6--x----------|
3--x-3-x-3---6--x-6-x-6---4--x---x-----6--x----------|
1--x-1-x-1---6--x---x-----4--x---x-----4--x----------|
*    *   *   *    *   *   *            *    *   *

Jerry Wonda, platinum sound jam session
--------------------------------------------------|
--------------------------------------------------|
1----1---1---8----8---8---6---6---6---5----5-5h6--|
3--x-3-x-3---8--x-8-x-8---6-x-6-x-6---6--x--x-----|
3--x-3-x-3---6--x-6-x-6---4-x-4-x-4---6--x--x-----|
1--x-1-x-1---6--x-6-x-6---4-x-4-x-4---4--x--------|
*    *   *   *    *   *   *   *   *   *

---------------------------------------------------|
---------------------------------------------------|
1----1---1---8----8---8---6----6---6---5----5---5--|
3--x-3-x-3---8--x-8-x-8---6--x-6-x-6---6--x-6-x-6--|
3--x-3-x-3---6--x-6-x-6---4--x-4-x-4---6--x-6-x-6--|
1--x-1-x-1---6--x---x-----4--x---x-----4--x-4-x-4--|
*    *   *   *    *   *   *    *   *   *    *   *

                                               To all the sweetest girls out there, 
my money at? Heh heh heh
--------------------------------------------4----||
-------------------------------------4---6-------||
1----1---1---8----8---8---^6----3h5--------------||
3--x-3-x-3---8--x-8-x-8---^6---------------------||
3--x-3-x-3---6--x-6-x-6---^4---------------------||
1--x-1-x-1---6--x---x-----^4---------------------||
*    *   *   *    *   *


THATS IT!

            
            
Suggest correction
Creating personal tab
Creating personal tab
You can edit any tab online and save it as your Personal.

You can edit, replace or remove any tab part or add personal notes – all changes will be seen only by you.

Personal tabs can be accessed anytime from any device, even offline.
Learn more »
comments
print report bad tab
1 comment total.
0 reply
BabyAppeal78 10 Jan 19, 2010 10:09 AM

I think it is pretty clear in the video of this on youtube from the Platinum Sound Session that it goes back to either an Eb or as you have it in your tab an Eb/Bb after the Db instead of an Ab. Good tab though.

------------------------------------------------------|
------------------------------------------------------|
-----1------------8------------6-------8--8--8---8----|
3--3-3-x-x-x-8--8-8-x-x-x-6--6-6-x-x-x-8--8--8-x-8-x--|
3--3-3-x-x-x-6--6-6-x-x-x-4--4-4-x-x-x-6--6--6-x-6-x--|
1--1-1-x-x-x-6--6-6-x-x-x-4--4-4-x-x-x-6--6--6-x-6-x--|

guest
You may want to rate the tab now too:
select rating
Wanna post a correction for this tab? Suggest correction