Oops, an error
Loading. Please wait.

Ahead Of Myself tab

version 1
version 1

Whole song

2,431 views 204 this week
1 commentread comment
1 2 3 4 5
x 14
add to favorites
×
Save as Personal and add changes to this tab that will be seen only by you. Learn more ›
×
You can save this tab as Personal to edit and correct it or add notes. All changes will be seen only by you. Learn more »
launch autoscroll
font size
0
reset
how to read this tab
guitar tuner
edit
Autoscroll
slow
fast
+/-
esc
set tempo
stop
No Capo
Standard Tuning
Ahead Of Myself - X Ambassadors 
Link to Song - https://www.youtube.com/watch?v=z-Jsc8TmcAU

Chords in this song - Bb C F Dm 



  Bb      C Dm F     Bb      C Dm F     Bb      C Dm F     Bb      C Dm F  
e|--------0-1-1-1-1-|--------0-1-1-1-1-|--------0-1-1-1-1-|--------0-1-1-1-1-|
B|--3-3-3-----------|--3-3-3-----------|--3-3-3-----------|--3-3-3-----------|
G|------------------|------------------|------------------|------------------| Repeat throughout song
D|---------0-0-3-3--|---------0-0-3-3--|---------0-0-3-3--|---------0-0-3-3--|
A|-1-1-1-3----------|-1-1-1-3----------|-1-1-1-3----------|-1-1-1-3----------|
E|------------------|------------------|------------------|------------------|

            
            
Suggest correction
Creating personal tab
Creating personal tab
You can edit any tab online and save it as your Personal.

You can edit, replace or remove any tab part or add personal notes – all changes will be seen only by you.

Personal tabs can be accessed anytime from any device, even offline.
Learn more »
comments
print report bad tab
1 comment total.
+2 reply
TreysonLTD 10 Oct 20, 2017 02:00 PM

Good tab! Listening to the song, he slides a lot so I think he plays it as this variation:
Bb C Dm F
e|---––––––––––––––-|
B|--3-3-3-5-6-6-6-6-|
G|------------------| Repeat throughout song
D|---------–––––––--|
A|-1-1-1-3-5-5-8-8--|
E|------------------|

guest
You may want to rate the tab now too:
select rating
Wanna post a correction for this tab? Suggest correction