Oops, an error
Loading. Please wait.
We have an official Renegades tab made by UG professional guitarists. Check out the tab »
×

Renegades chords

version 8
version 8

Whole song

Interactive

Video

643 views 1 this week
no commentswrite comment
1 2 3 4 5
2 more votes to show rating
add to favorites
×
Save as Personal and add changes to this tab that will be seen only by you. Learn more ›
×
You can save this tab as Personal to edit and correct it or add notes. All changes will be seen only by you. Learn more »
launch autoscroll
font size
0
reset
transpose
0
reset
display chords
guitar tuner
edit
Autoscroll
slow
fast
+/-
esc
set tempo
stop
Author
About this tab version
The tablature has more details, (for the intro and instrumental). Was this info helpful? Yes No
Strumming
There is no strumming pattern for this song yet. and get +5 IQ
[Intro]

e|---------------|-----------------|--------------|-----------------|
B|---3------0hq3-|----3-------0hq3-|----2------h2-|----3-------0hq3-|
G|---0------0----|----0-------0----|----2------h2-|----0---------0--|
D|---------------|-0-------0-------|--------------|-----------------|
A|-2-----2-------|-----------------|-0-------0----|-----------------|
E|---------------|-----------------|--------------|-3-------3-------|

e|---------------|-----------------|--------------|-----------------|
B|---3------0hq3-|----3-------0hq3-|----2------h2-|----3-------0hq3-|
G|---0------0----|----0-------0----|----2------h2-|----0---------0--|
D|---------------|-0-------0-------|--------------|-----------------|
A|-2-----2-------|-----------------|-0-------0----|-----------------|
E|---------------|-----------------|--------------|-3-------3-------|


You can play this through if you want, but you could also play the chords.


[Verse 1]

Bm          D           A           G
Run away, away with me
Bm          D           A           G
Lost souls and revelry
Bm          D                  A           G
Running wild and running free
Bm          D           A           G
Two kids, you and me                       And I said


[Chorus]

Bm                  D        A                  G
Hey, hey hey hey hey! Living like we're Renegades
             Bm            D        A               G
Hey hey hey, hey hey hey! Living like we're Renegades
Bm                  D        A          G
Renegades 
Bm                  D        A          G
Renegades


[Verse 2]

Bm          D           A           G
Love live the pioneers
Bm          D           A           G
Rebels and mutineers
Bm           D             A           G
Go forth and have no fear
Bm             D           A           G
Come close and lend an ear                   And I said


[Chorus]

Bm                  D        A                  G
Hey, hey hey hey hey! Living like we're Renegades
             Bm            D        A               G
Hey hey hey, hey hey hey! Living like we're Renegades
Bm                  D        A          G
Renegades 
Bm                  D        A          G
Renegades


[Interlude]

(same as intro)

e|---------------|-----------------|--------------|-----------------|
B|---3------0hq3-|----3-------0hq3-|----2------h2-|----3-------0hq3-|
G|---0------0----|----0-------0----|----2------h2-|----0---------0--|
D|---------------|-0-------0-------|--------------|-----------------|
A|-2-----2-------|-----------------|-0-------0----|-----------------|
E|---------------|-----------------|--------------|-3-------3-------|


Bm          D             
All hail the underdogs
A           G
All hail the new kids
Bm          D  
All hail the outlaws
A              G
Spielbergs and Kubricks
Bm             D         
It's our time to make a move
A              G
It's our time to make amends
Bm             D                  A              G
It's our time to break the rules,      let's begin.                     And I said


[Chorus]

Bm                  D        A                  G
Hey, hey hey hey hey! Living like we're Renegades
             Bm            D        A               G
Hey hey hey, hey hey hey! Living like we're Renegades
Bm                  D        A          G
Renegades 
Bm                  D        A          G
Renegades



************************************

| h  Hammer-on

************************************

            
            
Suggest correction
Creating personal tab
Creating personal tab
You can edit any tab online and save it as your Personal.

You can edit, replace or remove any tab part or add personal notes – all changes will be seen only by you.

Personal tabs can be accessed anytime from any device, even offline.
Learn more »
Give kudos to tab author, rate the tab!
1 2 3 4 5
comments
print report bad tab
guest
You may want to rate the tab now too:
select rating
Wanna post a correction for this tab? Suggest correction