Oops, an error
Loading. Please wait.

Art Of Life tab

version 2
version 2

Whole song

Interactive

by X Japan
7,560 views 1 this week
2 commentsread comments
1 2 3 4 5
x 5
add to favorites
×
Save as Personal and add changes to this tab that will be seen only by you. Learn more ›
×
You can save this tab as Personal to edit and correct it or add notes. All changes will be seen only by you. Learn more »
launch autoscroll
font size
0
reset
how to read this tab
guitar tuner
edit
Autoscroll
slow
fast
+/-
esc
set tempo
stop
#----------------------------------PLEASE NOTE---------------------------------#
#This file is the author's own work and represents their interpretation of the #
#song. You may only use this file for private study, scholarship, or research. #
#------------------------------------------------------------------------------#

ART OF LIFE
As recorded by X Japan
(From the 1993 Album ART OF LIFE)

Transcribed by MajinStylee
	

Words and Music by Yoshiki Hayashi

G6
x x x 0 0 0
	
D/F#
x x 4 2 3 x
	
Cm/G
x x 5 5 4 x
	
B
x x 9 8 7 x
Em+5
x x x 9 8 8
	
F#m+5
x x x 11 10 10
	
G6XII
x x x 12 12 12
	
Bm
x x x 16 15 14
Cm
x x x 17 16 15
	
C6
x x x 17 17 17
	
Fmaj7
x x 3 2 1 0
	
G
x x 5 4 3 x
Am/E
x x 2 2 1 x
	
A5
5 7 x x x x
	
F5
1 3 x x x x
	
E5
0 2 x x x x

Gtr I (E A D G B E) - 'Clean 1, Piano (Right Hand), and Clavinet'
Gtr II (E A D G B E) - 'Clean 2'
Gtr III (E A D G B E) - 'Distortion 1'
Gtr IV (E A D G B E) - 'Distortion 2'
Gtr V (E A D G B E) - 'Distortion 3'

 Desert Rose (0:00)
  Q=75
 4/4
  Gtr II
  S S S S S S S S S S S S S S S S   S S S S S S S S S S S S S S S S
|---------0---------------0-------|---------2---------------2--------|
|-------0---0-----------0---0-----|-------0---0-----------0---0------|
|-----0-------0-------0-------0---|-----2-------2-------2-------2----|
|---2-----------2---2-----------2-|---1-----------1---1-----------1--|
|-3---------------3---------------|-2---------------2----------------|
|---------------------------------|----------------------------------|


  S S S S S S S S S S S S S S S S   S S S S S S S S S S S S S S S S
|---------0---------------0-------|---------2---------------2-------|
|-------0---0-----------0---0-----|-------0---0-----------0---0-----|
|-----0-------0-------0-------0---|-----2-------2-------2-------2---|
|---2-----------2---2-----------2-|---1-----------1---1-----------1-|
|-3---------------3---------------|-2---------------2---------------|
|---------------------------------|---------------------------------|


  S S S S   S  S S S S S S S S S S S   S S S S S S S S  S  S S S S S S S
|-----------0----------------0-------|---------2-----------------2-------|
|-------0------0-----------0---0-----|-------0---0-------------0---0-----|
|-----0----------0-------0-------0---|-----2-------2---------2-------2---|
|---2--------------2---2-----------2-|---1-----------1-----1-----------1-|
|-3------------------3---------------|-2----------------2----------------|
|------------------------------------|-----------------------------------|
|
| Gtr I
| Q         H.                         Q       E   E   +H
|---------^12------------------------|---------7---8---(8)---------------|
|---------^13------------------------|---------7-------------------------|
|-0-------^16------------------------|---------8-------------------------|
|-2-------^17------------------------|-----------------------------------|
|-3----------------------------------|-----------------------------------|
|------------------------------------|-----------------------------------|


  S S S S S S S S S S S  S S S S S   S S S S S S S   S S S   S S S S S S
|---------0----------------0-------|---------2-------------------2--------|
|-------0---0------------0---0-----|-------0---0---------------0---0------|
|-----0-------0-------0--------0---|-----2-------2-----------2-------2----|
|---2-----------2---2------------2-|---1-------------1---1-------------1--|
|-3---------------3----------------|-2-----------------2------------------|
|----------------------------------|--------------------------------------|
|
| Q       S S S S E   Q.             Q       S S T T S S Q..
|-------------5-7------------------|--------------------------------------|
|-------------5---1---0------------|-----------------0--------------------|
|-----------0----------------------|--------------------------------------|
|----------------------------------|-------------2-4---2-1----------------|
|---------3------------------------|-----------2--------------------------|
|----------------------------------|--------------------------------------|


  S S   S   S S S S S S S S S S S S S
|-------------0---------------0-------|
|-----------0---0-----------0---0-----|
|-------0---------0-------0-------0---|
|---2---------------2---2-----------2-|
|-3-------------------3---------------|
|-------------------------------------|
|
| |---3---|
| E   E   E   Q       E   S E   E   S
|-------------------------------------|
|-------------------------------------|
|---------------------2---------2-----|
|---------0---2-------------0---------|
|-----3-------------------3---------2-|
|-------------------------------------|


   S  S S S S S S S S S S S  S  S   S   S
|-----------2----------------2--------------|
|---------0---0-----------0-----0-----------|
|-------2-------2-------2-----------2-------|
|-----1-----------1---1-----------------1---|
|--2----------------2-----------------------|
|-------------------------------------------|
|
|                            |---3----|
| +S  E   S S E   S S E   S +E    E   E
|---------------------2---5-(5)---7---8-----|
|-----------------2-4-----------------------|
|---------2---------------------------------|
|-----4-------------------------------------|
|-(2)-------3-2-----------------------------|
|-------------------------------------------|


  S S S S S S S S  S S S S S S S S   S S S S S S S S S S  S S S S S S
|---------0----------------0-------|---------2----------------2-------|
|-------0---0------------0---0-----|-------0---0------------0---0-----|
|-----0-------0--------0-------0---|-----2-------2--------2-------2---|
|---2-----------2----2-----------2-|---1-----------1---1------------1-|
|-3----------------3---------------|-2---------------2----------------|
|----------------------------------|----------------------------------|
|
| H                H                 H               S E.     Q
|-7--------------------------------|--------------------------2-------|
|-----------------^0---------------|-------------------4------4-------|
|-----------------^0---------------|-------------------4------4-------|
|-----------------^2---------------|-------------------4--------------|
|-----------------^3---------------|----------------------------------|
|----------------------------------|----------------------------------|


    S S S S   S S S S S   S   S   S S   S   S S
|-------------0---------------------0-----------|
|---------0-----0-----------------0-----0-------|
|-------0---------0-----------0-------------0---|
|-----2-------------2-----2-------------------2-|
|---3-----------------3-------------------------|
|-----------------------------------------------|
|
|                     |----6----|   |--3--|
|   Q         Q       S S   S S E   S S   S E
|-^12-------^12---------0-----------------------|
|-^13-------^13-------0-----1-0-0-----0---------|
|-^16-------^16---------------------0-----0-----|
|-^17-------^17-----------------------------2---|
|-----------------------------------------------|
|-----------------------------------------------|


  S S S S S S S S  S  S S S S S S S
|---------2-----------------2--------|
|-------0---0-------------0---0------|
|-----2-------2---------2-------2----|
|---1-----------1-----1-----------1--|
|-2----------------2-----------------|
|------------------------------------|
|
| E   S S E   S S +H
|------------------------------------|
|---------------0-(0)----------------|
|-------------2----------------------|
|-----4-1----------------------------|
|---------2--------------------------|
|------------------------------------|


  S S S S S S  S S S S  S  S S S S S
|---------0------------------0-------|
|-------0---0--------------0---0-----|
|-----0--------0--------0--------0---|
|---2------------2---2-------------2-|
|-3----------------3-----------------|
|------------------------------------|
|
| E   S S S E.     E    Q.
|------------------0---12------------|
|-----------3------------------------|
|---------0--------------------------|
|-------2----------------------------|
|-----3------------------------------|
|------------------------------------|


  S  S S S S   S   S   S   S   S   S   S   S    S   S    S
|----------2-------------------------------2---------------|
|--------0-----0-----------------------0--------0----------|
|------2-----------2---------------2----------------2------|
|----1-----------------1-------1-------------------------1-|
|-2------------------------2-------------------------------|
|----------------------------------------------------------|
|
|          |------6------| |------6------| |-----6-----|
| E.     S S S   S S S   S S S   S S S   S S  S   S S  E
|----------------------------7-------7-----2-14---2-7-19---|
|--------------------------0-----0-4-----4-----------------|
|----------------------------------------------------------|
|----------1-----1-4-1---4---------------------------------|
|--------2---2---------------------------------------------|
|----------------------------------------------------------|


  S S S S S S S S S S S S S S S S   S S S S S S S S S S S S S S S S
|---------0---------------0-------|---------2---------------2-------|
|-------0---0-----------0---0-----|-------0---0-----------0---0-----|
|-----0-------0-------0-------0---|-----2-------2-------2-------2---|
|---2-----------2---2-----------2-|---1-----------1---1-----------1-|
|-3---------------3---------------|-2---------------2---------------|
|---------------------------------|---------------------------------|


  S S S S S S S S S S S S S S S S   S S S S S S S S S S S S S S S S
|---------0---------------0-------|---------2---------------2-------|
|-------0---0-----------0---0-----|-------0---0-----------0---0-----|
|-----0-------0-------0-------0---|-----2-------2-------2-------2---|
|---2-----------2---2-----------2-|---1-----------1---1-----------1-|
|-3---------------3---------------|-2---------------2---------------|
|---------------------------------|---------------------------------|


  S S S S S S S S S S S S S S S S   S S S S S S S S S S S S S S S S
|---------0---------------0-------|---------2---------------2-------|
|-------0---0-----------0---0-----|-------0---0-----------0---0-----|
|-----0-------0-------0-------0---|-----2-------2-------2-------2---|
|---2-----------2---2-----------2-|---1-----------1---1-----------1-|
|-3---------------3---------------|-2---------------2---------------|
|---------------------------------|---------------------------------|


  S S S S S S S S S S S S S S S S   S S S S S S S S S S S S S S S S
|---------0---------------0-------|---------2---------------2-------||
|-------0---0-----------0---0-----|-------0---0-----------0---------||
|-----0-------0-------0-------0---|-----2-------2-------2-----------||
|---2-----------2---2-----------2-|---1-----------1---1-------------||
|-3---------------3---------------|-2---------------2---------0-----||
|---------------------------------|-----------------------------3-2-||


  Gtr I
  E   E   E   E   E   E   E   E     E   E   E   E   E   E   E   E
|---------0---------------0-------|---------2---------------2-------|
|-----0-------0-------0-------0---|-----4-------4-------4-------4---|
|-0---------------0---------------|-4---------------4---------------|
|---------------------------------|---------------------------------|
|---------------------------------|---------------------------------|
|---------------------------------|---------------------------------|
|
| Gtr II
| S S S S S S S S S S S S S S S S   S S S S S S S S S S S S S S S S
|---------------------------------|---------------------------------|
|---------0---------------0-------|---------4---------------4-------|
|-----0-----0---0-----0-----0---0-|-----4-----4---4-----4-----4---4-|
|---2---2-----2-----2---2-----2---|---4---4-----4-----4---4-----4---|
|---------------------------------|-6---------------6---------------|
|-0---------------0---------------|---------------------------------|


  E   E   E   E   E   E   E   E     E   E   E   E   E   E   E   E
|---------5---------------5-------|---------0---------------2-------|
|-----7-------7-------7-------7---|-----1-------1-------4-------4---|
|-7---------------7---------------|-0---------------4---------------|
|---------------------------------|---------------------------------|
|---------------------------------|---------------------------------|
|---------------------------------|---------------------------------|
|
| S S S S S S S S S S S S S S S S   S S S S S S S S S S S S S S S S
|---------2---------------2-------|---------------------------------|
|-----3-----3---3-----3-----3---3-|---------1---------------1-------|
|---2---2-----2-----2---2-----2---|-----0-----0---0-----0-----0---0-|
|-0---------------0---------------|---2---2-----2-----2---2-----2---|
|---------------------------------|-3---------------3---------------|
|---------------------------------|---------------------------------|


  E   E   E   E   E   E   E   E     E   E   E   E   E   E   E   E
|---------0---------------0-------|---------5---------------5-------|
|-----0-------0-------0-------0---|-----7-------7-------7-------7---|
|-0---------------0---------------|-7---------------7---------------|
|---------------------------------|---------------------------------|
|---------------------------------|---------------------------------|
|---------------------------------|---------------------------------|
|
| S S S S S S S S S S S S S S S S   S S S S S S S S S S S S S S S S
|---------------------------------|---------2---------------2-------|
|---------0---------------0-------|-----3-----3---3-----3-----3---3-|
|-----0-----0---0-----0-----0---0-|---2---2-----2-----2---2-----2---|
|---2---2-----2-----2---2-----2---|-0---------------0---------------|
|---------------------------------|---------------------------------|
|-0---------------0---------------|---------------------------------|


  E   E   E   E   E   E   E   E     E   E   E   E   E   E   E   E
|---------3---------------3-------|---------5---------------5-------|
|-----5-------5-------1-------1---|-----7-------7-------7-------7---|
|-5---------------2---------------|-7---------------8---------------|
|---------------------------------|---------------------------------|
|---------------------------------|---------------------------------|
|---------------------------------|---------------------------------|
|
| S S S S S S S S S S S S S S S S   S S S S S S S S S S S S S S S S
|---------------------------------|---------2---------------2-------|
|---------1---------------1-------|-----3-----3---3-----0-----0---0-|
|-----0-----0---0-----0-----0---0-|---2---2-----2-----2---2-----2---|
|---2---2-----2-----2---2-----2---|-0---------------1---------------|
|-3---------------0---------------|---------------------------------|
|---------------------------------|---------------------------------|


  E   E   E   E   E   E   E   E     E   E   E   E   E   E   E   E
|---------0---------------0-------|---------2---------------2-------|
|-----0-------0-------0-------0---|-----4-------4-------4-------4---|
|-0---------------0---------------|-4---------------4---------------|
|---------------------------------|---------------------------------|
|---------------------------------|---------------------------------|
|---------------------------------|---------------------------------|
|
| S S S S S S S S S S S S S S S S   S S S S S S S S S S S S S S S S
|---------------------------------|---------------------------------|
|---------0---------------0-------|---------4---------------4-------|
|-----0-----0---0-----0-----0---0-|-----4-----4---4-----4-----4---4-|
|---2---2-----2-----2---2-----2---|---4---4-----4-----4---4-----4---|
|---------------------------------|-6---------------6---------------|
|-0---------------0---------------|---------------------------------|


  E   E   E   E   E   E   E   E     E   E   E   E   E   E   E   E
|---------5---------------5-------|---------5---------------5-------|
|-----7-------7-------7-------7---|-----5-------5-------5-------5---|
|-7---------------7---------------|-6---------------6---------------|
|---------------------------------|---------------------------------|
|---------------------------------|---------------------------------|
|---------------------------------|---------------------------------|
|
| S S S S S S S S S S S S S S S S   S S S S S S S S S S S S S S S S
|---------2---------------2-------|---------------------------------|
|-----3-----3---3-----3-----3---3-|---------2---------------2-------|
|---2---2-----2-----2---2-----2---|-----2-----2---2-----2-----2---2-|
|-0---------------0---------------|---2---2-----2-----2---2-----2---|
|---------------------------------|-4---------------4---------------|
|---------------------------------|---------------------------------|


  E   E   E   E   E   E   E   E     E   E   E   E   Q       Q
|---------0---------------0-------|---------------------------------|
|-----1-------1-------1-------0---|---------0-------1-------0-------|
|-0---------------0---------------|-----0-------0---2-------0-------|
|---------------------------------|---------------------------------|
|---------------------------------|---------------------------------|
|---------------------------------|-3-------------------------------|
|
| S S S S S S S S S S S S S S S S   S S S S S S S S S S S S S S S S
|---------------------------------|---------------------------------|
|---------1---------------1-------|---------0-----------1-------0---|
|-----0-----0---0-----0-----0---0-|-----0-----0---0---0---0---0---0-|
|---2---2-----2-----2---2-----2---|---0---0-----0---2-------0-------|
|-3---------------3---------------|---------------------------------|
|---------------------------------|-3-------------------------------|


  E   E   E   E   E   E   E   E     E   E   E   E   H
|---------5---------------5-------|---------7-------5----||
|-----7-------7-------7-------7---|-----8-------8---7----||
|-7---------------8---------------|-9---------------7----||
|---------------------------------|----------------------||
|---------------------------------|----------------------||
|---------------------------------|----------------------||
|
| S S S S S S S S S S S S S S S S   S S S S S S S S H
|---------2---------------2-------|---------0-------2----||
|-----3-----3---3-----0-----0---0-|-----0-----0---0-3----||
|---2---2-----2-----2---2-----2---|---0---0-----0---2----||
|-0---------------1---------------|-2---------------0----||
|---------------------------------|----------------------||
|---------------------------------|----------------------||


  E   E   E   E   E   E   E   E     E   E   E   E   E   E   E   E
|---------3---------------3-------|---------2---------------2-------|
|-----3-------3-------3-------3---|-----4-------4-------4-------4---|
|-4---------------4---------------|-4---------------4---------------|
|---------------------------------|---------------------------------|
|---------------------------------|---------------------------------|
|---------------------------------|---------------------------------|
|
| S S S S S S S S S S S S S S S S   S S S S S S S S S S S S S S S S
|---------------------------------|---------------------------------|
|---------0---------------0-------|---------0---------------0-------|
|-----0-----0---0-----0-----0---0-|-----2-----2---2-----2-----2---2-|
|---0---0-----0-----0---0-----0---|---1---2-----1-----1---2-----1---|
|---------------------------------|-2---------------2---------------|
|-3---------------3---------------|---------------------------------|


  E   E   E   E   E   E   E   E     E   E   E   E   E   E   E   E
|---------0---------------0-------|---------2---------------2-------|
|-----1-------1-------1-------1---|-----3-------3-------3-------3---|
|-0---------------0---------------|-2---------------2---------------|
|---------------------------------|---------------------------------|
|---------------------------------|---------------------------------|
|---------------------------------|---------------------------------|
|
| S S S S S S S S S S S S S S S S   S S S S S S S S S S S S S S S S
|---------------------------------|---------2---------------2-------|
|---------1---------------1-------|-----3-----3---3-----3-----3---3-|
|-----0-----0---0-----0-----0---0-|---2---2-----2-----2---2-----2---|
|---2---2-----2-----2---2-----2---|-0---------------0---------------|
|-3---------------3---------------|---------------------------------|
|---------------------------------|---------------------------------|


  E   E   E   E   E   E   E   E     E   E   E   E   E   E   E   E
|---------3---------------3-------|---------2---------------2-------|
|-----3-------3-------3-------3---|-----4-------4-------4-------4---|
|-4---------------4---------------|-4---------------4---------------|
|---------------------------------|---------------------------------|
|---------------------------------|---------------------------------|
|---------------------------------|---------------------------------|
|
| S S S S S S S S S S S S S S S S   S S S S S S S S S S S S S S S S
|---------------------------------|---------------------------------|
|---------0---------------0-------|---------0---------------0-------|
|-----0-----0---0-----0-----0---0-|-----2-----2---2-----2-----2---2-|
|---0---0-----0-----0---0-----0---|---1---2-----1-----1---2-----1---|
|---------------------------------|-2---------------2---------------|
|-3---------------3---------------|---------------------------------|


  E   E   E   E   E   E   E   E     E   E   E   E   E   E   E   E
|---------0---------------0-------|---------2---------------2-------|
|-----1-------1-------2-------2---|-----3-------2-------4-------4---|
|-0---------------2---------------|-2---------------4---------------|
|---------------------------------|---------------------------------|
|---------------------------------|---------------------------------|
|---------------------------------|---------------------------------|
|
| PM--------------------------------------------------------------|
| S S S S S S S S S S S S S S S S   S S S S S S S S S S S S S S S S
|---------------------------------|---------2---------------2-------|
|---------1---------------2-------|-----3-----3---3-----0-----0---0-|
|-----0-----0---0-----2-----2---2-|---2---2-----2-----2---2-----2---|
|---2---2-----2-----2---2-----2---|-0---------------1---------------|
|-3---------------4---------------|---------------------------------|
|---------------------------------|---------------------------------|


  E   E   E   E   E   E   E   E     E   E   E   E   E   E   E   E
|---------3-------5-------3-------|---------5-------7-------5-------|
|-----5-------5-------5-------5---|-----7-------7-------7-------7---|
|-4-------------------------------|-7-------------------------------|
|---------------------------------|---------------------------------|
|---------------------------------|---------------------------------|
|---------------------------------|---------------------------------|
|
| PM--------------------------------------------------------------|
| S S S S S S S S S S S S S S S S   S S S S S S S S S S S S S S S S
|---------0-------2-------0-------|---------2-------3-------2-------|
|-----0-----0---0---0---0---0---0-|-----3-----3---3---3---3---3---3-|
|---0---0-----0-------0-------0---|---2---2-----2-------2-------2---|
|-2-------------------------------|-0-------------------------------|
|---------------------------------|---------------------------------|
|---------------------------------|---------------------------------|


  E   E   E   E   E   E   E   E     E   E   E   E   E   E   E   E
|---------5-------7-------5-------|---------0---------------2-------|
|-----5-------5-------5-------5---|-----1-------1-------4-------4---|
|-6-------------------------------|-0---------------4---------------|
|---------------------------------|---------------------------------|
|---------------------------------|---------------------------------|
|---------------------------------|---------------------------------|
|
| PM--------------------------------------------------------------|
| S S S S S S S S S S S S S S S S   S S S S S S S S S S S S S S S S
|---------------------------------|---------------------------------|
|---------2-------3-------2-------|---------1---------------0-------|
|-----2-----2---2---2---2---2---2-|-----0-----0---0-----2-----2---2-|
|---2---2-----2-------2-------2---|---2---2-----2-----1---1-----1---|
|-4-------------------------------|-3---------------2---------------|
|---------------------------------|---------------------------------|


  E   E   E   E   E   E   E   E     E   E   E   E   E   E   E   E
|---------3-------5-------3-------|---------7-------7-------5-------|
|-----5-------5-------5-------5---|-----4-------4-------4-------4---|
|-4-------------------------------|-4-------------------------------|
|---------------------------------|---------------------------------|
|---------------------------------|---------------------------------|
|---------------------------------|---------------------------------|
|
| PM--------------------------------------------------------------|
| S S S S S S S S S S S S S S S S   S S S S S S S S S S S S S S S S
|---------0-------2-------0-------|---------2-------3-------2-------|
|-----0-----0---0---0---0---0---0-|-----0-----0---0---0---0---0---0-|
|---0---0-----0-------0-------0---|---2---2-----2-------2-------2---|
|-2-------------------------------|-1-------------------------------|
|---------------------------------|---------------------------------|
|---------------------------------|---------------------------------|


  E   E   E   E   E   E   E   E     E   E   E   E   H
|---------5---------------7-------|---------3-------3----||
|-----7-------7-------7-------7---|-----5-------5---5----||
|-7---------------8---------------|-4---------------4----||
|---------------------------------|----------------------||
|---------------------------------|----------------------||
|---------------------------------|----------------------||
|
| S S S S S S S S S S S S S S S S   S S S S S S S S H
|---------2---------------2-------|---------0------------||
|-----3-----3---------0-----0-----|-----0-----0---0-0----||
|---2---2-----2-----2---2-----2---|---0---0-----0---0----||
|-0-------------0-1-------------1-|-2---------------0----||
|---------------------------------|-----------------2----||
|---------------------------------|----------------------||


 Distortion Enters (3:00)
  Gtr III
   E.  S  H     +E   S  S    E.  S  H     +E   E
|-------------------------|----------------------|
|-------------------------|----------------------|
|-11--12------------11-12-|-14--12-11----(11)----|
|--------14----(14)-------|----------------------|
|-------------------------|-------------------14-|
|-------------------------|----------------------|
|
| Gtr IV
|  W                         W
|-------------------------|----------------------|
|-------------------------|----------------------|
|-------------------------|----------------------|
|-------------------------|----------------------|
|-------------------------|----------------------|
|-------------------------|----------------------|
|
| Gtr V
|  E.  S  H     +E   S  S    E.  S  H     +E   E
|-------------------------|----------------------|
|-------------------------|----------------------|
|-------------------------|-11-------------------|
|-12--14------------12-14-|-----14-12----(12)----|
|--------14----(14)-------|----------------------|
|-------------------------|-------------------15-|


   E.  S  H     +S   E  S    H..        S  S
|-------------------------|-------------------|
|-------------------------|-------------------|
|-11--12------------14-12-|-11----------------|
|--------14----(14)-------|-------------------|
|-------------------------|------------14-14--|
|-------------------------|-------------------|
|
|  W                         H..        S  S
|-------------------------|-------------------|
|-------------------------|-------------------|
|-------------------------|-------------------|
|-------------------------|-------------------|
|-------------------------|-------------2--2--|
|-------------------------|-------------------|
|
|  E.  S  H     +S   E  S    H..        S  S
|-------------------------|-------------------|
|-------------------------|-------------------|
|-------------------11----|-------------------|
|-12--14---------------14-|-13----------------|
|--------15----(15)-------|-------------------|
|-------------------------|------------14-14--|


   E.  S  H     +E   S  S    E.  S  H     +E   E
|-------------------------|----------------------|
|-------------------------|----------------------|
|-11--12------------11-12-|-14--12-11----(11)----|
|--------14----(14)-------|----------------------|
|-------------------------|-------------------14-|
|-------------------------|----------------------|
|
|  E.  S  H     +E   S  S    E.  S  H     +E   E
|-------------------------|----------------------|
|-------------------------|----------------------|
|-------------------------|----------------------|
|--0---2-------------0--2-|--4---2--0-----(0)----|
|---------2-----(2)-------|----------------------|
|-------------------------|--------------------3-|
|
|  E.  S  H     +E   S  S    E.  S  H     +E   E
|-------------------------|----------------------|
|-------------------------|----------------------|
|-------------------------|-11-------------------|
|-12--14------------12-14-|-----14-12----(12)----|
|--------14----(14)-------|----------------------|
|-------------------------|-------------------15-|


   E.  S  H     +S   E  S    H     Q   Q
|-------------------------|-----------------|
|-------------------------|-----------------|
|-11--12------------14-12-|-11----12--14----|
|--------14----(14)-------|-----------------|
|-------------------------|-----------------|
|-------------------------|-----------------|
|
|  E.  S  H     +S   E  S    H     Q   Q
|-------------------------|-----------------|
|-------------------------|-----------------|
|-------------------------|-----------------|
|--0---2-------------4--2-|--1-----2---4----|
|---------3-----(3)-------|-----------------|
|-------------------------|-----------------|
|
|  E.  S  H     +S   E  S    H     Q   Q
|-------------------------|-----------------|
|-------------------------|-----------------|
|-------------------11----|-----------11----|
|-12--14---------------14-|-13----14--------|
|--------15----(15)-------|-----------------|
|-------------------------|-----------------|


   Q.      E  E.    E  E  S
|------------------------------|
|---------12-15b17-15----12b13r|
|-14b16---------------14-------|
|------------------------------|
|------------------------------|
|------------------------------|
|
|  H          H
|------------------------------|
|------------------------------|
|------------------------------|
|--5----------7----------------|
|--3----------5----------------|
|------------------------------|
|
|  Q.      E  E.    E  E  S
|------------------------------|
|------------------------------|
|-11b12---12-14b16-14-11-12b14r|
|------------------------------|
|------------------------------|
|------------------------------|


   +H.          +S   E  S    Q.      E  E.  E.    E
|-------------------------|---------12-14--14b15-14--||
|-(12)---------(12)-------|--------------------------||
|-------------------12-14-|-14b16--------------------||
|-------------------------|--------------------------||
|-------------------------|--------------------------||
|-------------------------|--------------------------||
|
|   H     E. E       E  S    H          H
|-------------------------|--------------------------||
|-------------------------|--------------------------||
|-------------------------|--------------------------||
|---9-----5--4------------|--5----------7------------||
|---7----------------7--5-|--3----------5------------||
|-------------------------|--------------------------||
|
|  +H.          +S   E  S    Q.      E  E.  E.    E
|-------------------------|--------------------------||
|-------------------------|---------13-15--15b17-15--||
|-(12)---------(12)----11-|-11b12--------------------||
|-------------------14----|--------------------------||
|-------------------------|--------------------------||
|-------------------------|--------------------------||


  Q=176
   W                           +W
|-14b15---------------------|-(14)----------------------|
|---------------------------|---------------------------|
|---------------------------|---------------------------|
|---------------------------|---------------------------|
|---------------------------|---------------------------|
|---------------------------|---------------------------|
|
|       PM----------|   PM      PM-------------|   PM
|  E    S S S S S S E E E E     E  S S S S S S E E E  E
|---------------------------|---------------------------|
|---------------------------|---------------------------|
|---------------------------|---------------------------|
|--5------------------5---7-|--------------------7----9-|
|--7------------------7---9-|--------------------9---10-|
|-------0-0-0-0-0-0-0---0---|---0--0-0-0-0-0-0-0---0----|
|
|  W                           +W
|---------------------------|---------------------------|
|-15b17---------------------|-(15)----------------------|
|---------------------------|---------------------------|
|---------------------------|---------------------------|
|---------------------------|---------------------------|
|---------------------------|---------------------------|


   +W                           +W
|-(14)-----------------------|-(14)--------------------------------|
|----------------------------|-------------------------------------|
|----------------------------|-------------------------------------|
|----------------------------|-------------------------------------|
|----------------------------|-------------------------------------|
|----------------------------|-------------------------------------|
|
|   PM-------------|    PM       PM---------------------------|
|   E  S S S S S S E  E E  E     E  S S S S S S S S S S S S S S
|----------------------------|-------------------------------------|
|----------------------------|-------------------------------------|
|----------------------------|-------------------------------------|
|---------------------9----9-|-------------------------------------|
|--------------------10---10-|-------------------------------------|
|---0--0-0-0-0-0-0-0----0----|---0--0-0-0-0-0-0-0-0-0-0-0-0-0-0----|
|
|  +W                           +W
|----------------------------|-------------------------------------|
|-(15)-----------------------|-(15)--------------------------------|
|----------------------------|-------------------------------------|
|----------------------------|-------------------------------------|
|----------------------------|-------------------------------------|
|----------------------------|-------------------------------------|


  Gtr IV
    PM----------|   PM    PM------------|   PM
  E S S S S S S E E E E   E S S S S S S E E E  E
|-----------------------|------------------------|
|-----------------------|------------------------|
|-----------------------|------------------------|
|-5---------------5---7-|-----------------7----9-|
|-7---------------7---9-|-----------------9---10-|
|---0-0-0-0-0-0-0---0---|-0-0-0-0-0-0-0-0---0----|


  PM------------|    PM     PM--------------------------|
  E S S S S S S E  E E  E   E S S S S S S S S S S S S S S
|-------------------------|----------------------------------||
|-------------------------|----------------------------------||
|-------------------------|----------------------------------||
|------------------9----9-|----------------------------------||
|-----------------10---10-|----------------------------------||
|-0-0-0-0-0-0-0-0----0----|-0-0-0-0-0-0-0-0-0-0-0-0-0-0-0----||


  Gtr III
   E  E  E    E    E  E  E    E      E  E  E    E    E  E  E    E
|---------------------------------|---------------------------------|
|-13-12----------------------13---|-13-12----------------------13---|
|-------14---12---11-12-14--------|-------14---12---11-12-14--------|
|---------------------------------|---------------------------------|
|---------------------------------|---------------------------------|
|---------------------------------|---------------------------------|
|
| Gtr IV
|     PM----------------------------------------------------------|
|  E  E  S S  S S  E  E  S S  S S    E  E  S S  S S  E  E  S S  S S
|---------------------------------|---------------------------------|
|---------------------------------|---------------------------------|
|---------------------------------|---------------------------------|
|--7--7--7-7--7-7--7--7--7-7--7-7-|--7--7--7-7--7-7--7--7--7-7--7-7-|
|--5--5--5-5--5-5--5--5--5-5--5-5-|--5--5--5-5--5-5--5--5--5-5--5-5-|
|---------------------------------|---------------------------------|
|
| Gtr V
|  E  E  E    E    E  E  E    E      E  E  E    E    E  E  E    E
|---------------------------------|---------------------------------|
|---------------------------------|---------------------------------|
|-14-12-11--------------11---12---|-14-12-11--------------11---12---|
|------------14---12-14-----------|------------14---12-14-----------|
|---------------------------------|---------------------------------|
|---------------------------------|---------------------------------|


   W                        +W
|------------------------|------------------------------------|
|-12---------------------|-(12)-------------------------------|
|------------------------|------------------------------------|
|------------------------|------------------------------------|
|------------------------|------------------------------------|
|------------------------|------------------------------------|
|
|    PM----------|   PM      PM-----|    PM----------------|
|  E S S S S S S E E E E     S  S S S  E S S S S S S S S S S
|------------------------|------------------------------------|
|------------------------|------------------------------------|
|------------------------|------------------------------------|
|--5---------------5---7-|-------------9----------------------|
|--7---------------7---9-|------------10----------------------|
|----0-0-0-0-0-0-0---0---|---0--0-0-0----0-0-0-0-0-0-0-0-0-0--|
|
|  W                        +W
|------------------------|------------------------------------|
|------------------------|------------------------------------|
|-12---------------------|-(12)-------------------------------|
|------------------------|------------------------------------|
|------------------------|------------------------------------|
|------------------------|------------------------------------|


   E  E  E    E    E  E  E    E      E  E  E    E    E  E  E    E
|---------------------------------|---------------------------------|
|-13-12----------------------12---|-13-12----------------------13---|
|-------14---12---11-12-14--------|-------14---12---11-12-14--------|
|---------------------------------|---------------------------------|
|---------------------------------|---------------------------------|
|---------------------------------|---------------------------------|
|
|     PM----------------------------------------------------------|
|  E  E  S S  S S  E  E  S S  S S    E  E  S S  S S  E  E  S S  S S
|---------------------------------|---------------------------------|
|---------------------------------|---------------------------------|
|---------------------------------|---------------------------------|
|--7--7--7-7--7-7--7--7--7-7--7-7-|--7--7--7-7--7-7--7--7--7-7--7-7-|
|--5--5--5-5--5-5--5--5--5-5--5-5-|--5--5--5-5--5-5--5--5--5-5--5-5-|
|---------------------------------|---------------------------------|
|
|  E  E  E    E    E  E  E    E      E  E  E    E    E  E  E    E
|---------------------------------|---------------------------------|
|---------------------------------|---------------------------------|
|-14-12-11--------------11---12---|-14-12-11--------------11---14---|
|------------14---12-14-----------|------------14---12-14-----------|
|---------------------------------|---------------------------------|
|---------------------------------|---------------------------------|


   W           Q.    Q.    Q
|-----------|-12----14----12b13---||
|-15--------|---------------------||
|-----------|---------------------||
|-----------|---------------------||
|-----------|---------------------||
|-----------|---------------------||
|
|  W           W
|-----------|---------------------||
|-----------|---------------------||
|-----------|---------------------||
|--5--------|--7------------------||
|--3--------|--5------------------||
|-----------|---------------------||
|
|  W           Q.    Q.    Q
|-----------|---------------------||
|-12--------|-13----15----15b17---||
|-----------|---------------------||
|-----------|---------------------||
|-----------|---------------------||
|-----------|---------------------||


   Q.          E    +H               +W
|-14----------12---(12)-----------|-(12)-------------------------|
|---------------------------------|------------------------------|
|---------------------------------|------------------------------|
|---------------------------------|------------------------------|
|---------------------------------|------------------------------|
|---------------------------------|------------------------------|
|
|  PM-----|    PM-------|   PM|       PM-----|   PM----|   PM|
|  S  S S S E  S S   S  S E S S E     S  S S S E S S S S E S S E
|---------------------------------|------------------------------|
|---------------------------------|------------------------------|
|---------------------------------|------------------------------|
|---------------------------------|------------------------------|
|-----------5-------------5-----7-|------------5---------5-----7-|
|--0--0-0-0-3--0-0---0--0-3-0-0-5-|---0--0-0-0-3-0-0-0-0-3-0-0-5-|
|
|  Q.          E    +H               +W
|---------------------------------|------------------------------|
|-15----------12---(12)-----------|-(12)-------------------------|
|---------------------------------|------------------------------|
|---------------------------------|------------------------------|
|---------------------------------|------------------------------|
|---------------------------------|------------------------------|


   +W                            W
|-(12)-------------------------|---------------|
|------------------------------|---------------|
|------------------------------|---------------|
|------------------------------|---------------|
|------------------------------|---------------|
|------------------------------|---------------|
|
|   PM-----|   PM----|   PM|
|   S  S S S E S S S S E S S E   E Q  E E Q  E
|------------------------------|---------------|
|------------------------------|---------------|
|------------------------------|---------------|
|------------------------------|---4--4-5-4--5-|
|------------5---------5-----7-|---5--5-5-5--5-|
|---0--0-0-0-3-0-0-0-0-3-0-0-5-|---------------|
|
|  +W                            W
|------------------------------|---------------|
|-(12)-------------------------|---------------|
|------------------------------|---------------|
|------------------------------|---------------|
|------------------------------|---------------|
|------------------------------|---------------|


  Gtr IV
  PM----|   PM----|   PM|     PM----|   PM----|   PM|
  S S S S E S S S S E S S E   S S S S E S S S S E S S E
|---------------------------|---------------------------|
|---------------------------|---------------------------|
|---------------------------|---------------------------|
|---------------------------|---------------------------|
|---------5---------5-----7-|---------5---------5-----7-|
|-0-0-0-0-3-0-0-0-0-3-0-0-5-|-0-0-0-0-3-0-0-0-0-3-0-0-5-|


  PM----|   PM----|   PM|
  S S S S E S S S S E S S E   E Q  E E Q  E
|---------------------------|---------------|
|---------------------------|---------------|
|---------------------------|---------------|
|---------------------------|---4--4-5-4--5-|
|---------5---------5-----7-|---5--5-5-5--5-|
|-0-0-0-0-3-0-0-0-0-3-0-0-5-|---------------|


  Gtr III
   E E E Q  E E  E    E E E Q  E E  E   W                           W
|--------8---------|--------8---------|---------------------------|-------||
|------8----8------|------8----8------|---------------------------|-------||
|----9--------9----|----9--------9----|---------------------------|-------||
|-10------------10-|-10------------10-|---------------------------|-------||
|------------------|------------------|---------------------------|-------||
|------------------|------------------|---------------------------|-------||
|
| Gtr IV
|                                                                   \3
|                                       PM----|   PM----|   PM|
|  W                  W                 S S S S E S S S S E S S E   W
|------------------|------------------|---------------------------|-------||
|------------------|------------------|---------------------------|-------||
|------------------|------------------|---------------------------|-------||
|--5---------------|--7---------------|---------------------------|-------||
|--3---------------|--5---------------|---------5---------5-----7-|-2-----||
|------------------|------------------|-0-0-0-0-3-0-0-0-0-3-0-0-5-|-0-----||


 Voices (4:12)
  Gtrs III, IV
  PM----------------------------------------------|
  E E S S S S E E S S S S   E E S S S S E E S S S S
|-------------------------|-------------------------|
|-------------------------|-------------------------|
|-------------------------|-------------------------|
|-------------------------|-------------------------|
|-2-2-2-2-2-2-2-2-2-2-2-2-|-2-2-2-2-2-2-2-2-2-2-2-2-|
|-0-0-0-0-0-0-0-0-0-0-0-0-|-0-0-0-0-0-0-0-0-0-0-0-0-|


  PM----------------------------------------------|
  E E S S S S E E S S S S   E E S S S S E E S S S S
|-------------------------|-------------------------|
|-------------------------|-------------------------|
|-------------------------|-------------------------|
|-------------------------|-------------------------|
|-5-5-5-5-5-5-5-5-5-5-5-5-|-5-5-5-5-5-5-5-5-5-5-5-5-|
|-3-3-3-3-3-3-3-3-3-3-3-3-|-3-3-3-3-3-3-3-3-3-3-3-3-|


  PM----------------------------------------------|
  E E S S S S E E S S S S   E E S S S S E E S S S S
|-------------------------|-------------------------|
|-------------------------|-------------------------|
|-------------------------|-------------------------|
|-7-7-7-7-7-7-7-7-7-7-7-7-|-7-7-7-7-7-7-7-7-7-7-7-7-|
|-5-5-5-5-5-5-5-5-5-5-5-5-|-5-5-5-5-5-5-5-5-5-5-5-5-|
|-------------------------|-------------------------|


  PM------------|         PM------|
  E E S S S S E E Q     E E E E E E E E
|---------------------|-----------------|
|---------------------|-----------------|
|---------------------|-----------------|
|-9-9-9-9-9-9-9-9-9\--|-------------5-4-|
|-7-7-7-7-7-7-7-7-7\--|-----------------|
|---------------------|---3-2-3-5-3-----|


  PM----------------------------------------------|
  E E S S S S E E S S S S   E E S S S S E E S S S S
|-------------------------|-------------------------|
|-------------------------|-------------------------|
|-------------------------|-------------------------|
|-------------------------|-------------------------|
|-2-2-2-2-2-2-2-2-2-2-2-2-|-2-2-2-2-2-2-2-2-2-2-2-2-|
|-0-0-0-0-0-0-0-0-0-0-0-0-|-0-0-0-0-0-0-0-0-0-0-0-0-|


                              PM------------------|
  W          Q.   Q.   Q    E E S S S S E E S S S S
|----------|--------------|-------------------------|
|----------|--------------|-------------------------|
|----------|--------------|-------------------------|
|-5--------|-2----4----5--|-4-4-4-4-4-4-4-4-4-4-4-4-|
|-3--------|--------------|-------------------------|
|----------|--------------|-------------------------|
|
| Gtr IV
|                             PM------------------|
| W          Q.   Q.   Q    E E S S S S E E S S S S
|----------|--------------|-------------------------|
|----------|--------------|-------------------------|
|----------|--------------|-------------------------|
|-5--------|--------------|-------------------------|
|-3--------|-3----5----7--|-5-5-5-5-5-5-5-5-5-5-5-5-|
|----------|--------------|-------------------------|


  PM----------------|     PM----------------------|   PM|
  E E S S S S E E E E   E E S S S S E E S S S S   E E E E q  q
|---------------------|-------------------------|----------------||
|---------------------|-------------------------|----------------||
|---------------------|-------------------------|----------------||
|-4-4-4-4-4-4-4---4-7-|-5-5-5-5-5-5-5-5-5-5-5-5-|---5-----5--4---||
|---------------6-----|-------------------------|----------------||
|---------------------|-------------------------|-0---0-0--------||
|
| PM----------------|     PM----------------------|   PM|
| E E S S S S E E E E   E E S S S S E E S S S S   E E E E q  q
|---------------------|-------------------------|----------------||
|---------------------|-------------------------|----------------||
|---------------------|-------------------------|----------------||
|---------------------|-------------------------|----------------||
|-6-6-6-6-6-6-6---6-9-|-7-7-7-7-7-7-7-7-7-7-7-7-|---7-----7--5---||
|---------------7-----|-------------------------|-0---0-0--------||


  W          W          W          W
|----------|----------|----------|------|
|----------|----------|----------|------|
|----------|----------|----------|------|
|-2--------|-4--------|----------|-1----|
|----------|----------|-2--------|------|
|----------|----------|----------|------|
|
| W          W          W          W
|----------|----------|----------|------|
|----------|----------|----------|------|
|----------|----------|----------|------|
|-5--------|-7--------|----------|-4----|
|-3--------|-5--------|-5--------|-2----|
|----------|----------|-3--------|------|


  PM-----------------------------------------------------------------
  S S S S S S S S S S S S S S S S   S S S S S S S S S S S S S S S S
|---------------------------------|---------------------------------|
|---------------------------------|---------------------------------|
|---------------------------------|---------------------------------|
|-2-2-2-2-5-5-5-5-4-4-4-4-2-2-2-2-|-2-2-2-2-5-5-5-5-4-4-4-4-2-2-2-2-|
|---------------------------------|---------------------------------|
|---------------------------------|---------------------------------|
|
| PM-----------------------------------------------------------------
| E   E   S S S S E   E   S S S S   E   E   S S S S E   E   S S S S
|---------------------------------|---------------------------------|
|---------------------------------|---------------------------------|
|---------------------------------|---------------------------------|
|-5---5---5-5-5-5-5---5---5-5-5-5-|-7---7---7-7-7-7-7---7---7-7-7-7-|
|-3---3---3-3-3-3-3---3---3-3-3-3-|-4---4---4-4-4-4-4---4---4-4-4-4-|
|---------------------------------|---------------------------------|


 -------------------------------------------------|
  S S S S S S S S S S S S S S S S   S S S S S S S S E Q  E
|---------------------------------|-------------------------|
|---------------------------------|-------------------------|
|---------------------------------|-------------------------|
|-4-4-4-4-7-7-7-7-5-5-5-5-4-4-4-4-|-1-1-1-1-4-4-4-4---------|
|---------------------------------|-----------------2-0--2--|
|---------------------------------|-------------------------|
|
|---------------------------------------------------|
| E   E   S S S S E   E   S S S S   E   E   S S S S E Q  E
|---------------------------------|-------------------------|
|---------------------------------|-------------------------|
|---------------------------------|-------------------------|
|-7---7---7-7-7-7-7---7---7-7-7-7-|-4---4---4-4-4-4-4-------|
|-5---5---5-5-5-5-5---5---5-5-5-5-|-2---2---2-2-2-2-2-0--2--|
|---------------------------------|-------------------------|


  W          W          W          W          W          W
|----------|----------|----------|----------|----------|------||
|----------|----------|----------|----------|----------|------||
|----------|----------|----------|----------|----------|------||
|-2--------|-4--------|----------|-1--------|-2--------|-4----||
|----------|----------|-2--------|----------|----------|------||
|----------|----------|----------|----------|----------|------||
|
| W          W          W          W          W          W
|----------|----------|----------|----------|----------|------||
|----------|----------|----------|----------|----------|------||
|----------|----------|----------|----------|----------|------||
|-5--------|-7--------|----------|-4--------|-5--------|-7----||
|-3--------|-5--------|-5--------|-2--------|-3--------|-5----||
|----------|----------|-3--------|----------|----------|------||


  Gtrs III, IV
  PM----|   PM----|   PM|     PM----|   PM----|   PM|
  S S S S E S S S S E S S E   S S S S E S S S S E S S  E
|---------------------------|----------------------------|
|---------------------------|----------------------------|
|---------------------------|----------------------------|
|---------5---------5-----7-|---------7---------7------9-|
|---------7---------7-----9-|---------9---------9-----10-|
|-0-0-0-0---0-0-0-0---0-0---|-0-0-0-0---0-0-0-0---0-0----|


  PM----|    PM----|    PM|      PM----|    PM----|    PM|
  S S S S  E S S S S  E S S  E   S S S S  E S S S S  E S S  E
|------------------------------|---------------------------------|
|------------------------------|---------------------------------|
|------------------------------|---------------------------------|
|----------9----------9------9-|----------9----------9------9----|
|---------10---------10-----10-|---------10---------10-----10----|
|-0-0-0-0----0-0-0-0----0-0----|-0-0-0-0----0-0-0-0----0-0-------|


  PM----|   PM----|   PM|     PM----|   PM----|   PM|
  S S S S E S S S S E S S E   S S S S E S S S S E S S  E
|---------------------------|----------------------------|
|---------------------------|----------------------------|
|---------------------------|----------------------------|
|---------5---------5-----7-|---------7---------7------9-|
|---------7---------7-----9-|---------9---------9-----10-|
|-0-0-0-0---0-0-0-0---0-0---|-0-0-0-0---0-0-0-0---0-0----|


  PM----|    PM----|    PM|      PM----|    PM----|    PM----|
  S S S S  E S S S S  E S S  E   S S S S  E S S S S  E S S S S
|------------------------------|----------------------------------||
|------------------------------|----------------------------------||
|------------------------------|----------------------------------||
|----------9----------9------9-|----------9----------9------------||
|---------10---------10-----10-|---------10---------10------------||
|-0-0-0-0----0-0-0-0----0-0----|-0-0-0-0----0-0-0-0----0-0-0-0----||


 5:03
   E  E  E  E  E  E  E  E     E   E  E  E  E  E  E  E
|-12----------------------|--12-----------------------|
|----15-13-12----12-13-15-|------15-13-12----12-13-15-|
|-------------14----------|---------------14----------|
|-------------------------|---------------------------|
|-------------------------|---------------------------|
|-------------------------|---------------------------|
|
| Gtr IV
|  W                         +W
|-------------------------|---------------------------|
|-------------------------|---------------------------|
|-------------------------|---------------------------|
|-10----------------------|-(10)----------------------|
|--8----------------------|--(8)----------------------|
|-------------------------|---------------------------|
|
| Gtr V
|  E  E  E  E  E  E  E  E     E   E  E  E  E  E  E  E
|-------------------------|---------------------------|
|-13-12----------------12-|--13--12----------------12-|
|-------14-12----12-14----|---------14-12----12-14----|
|-------------15----------|---------------15----------|
|-------------------------|---------------------------|
|-------------------------|---------------------------|


   W                          +W
|--------------------------|-------------------------------|
|-12-----------------------|-(12)--------------------------|
|--------------------------|-------------------------------|
|--------------------------|-------------------------------|
|--------------------------|-------------------------------|
|--------------------------|-------------------------------|
|
|    PM|   PM----|   PM|       PM-----|   PM----|   PM|
|  E S S E S S S S E S S E     S  S S S E S S S S E S S  E
|--------------------------|-------------------------------|
|--------------------------|-------------------------------|
|--------------------------|-------------------------------|
|--6-----6---------6-----7-|------------7---------7------9-|
|--7-----7---------7-----8-|------------8---------8-----11-|
|----0-0---0-0-0-0---0-0---|---0--0-0-0---0-0-0-0---0-0----|
|
|  W                          +W
|--------------------------|-------------------------------|
|--------------------------|-------------------------------|
|-13-----------------------|-(13)--------------------------|
|--------------------------|-------------------------------|
|--------------------------|-------------------------------|
|--------------------------|-------------------------------|


   +W
|---------------------------------|
|-(12)----------------------------|
|---------------------------------|
|---------------------------------|
|---------------------------------|
|---------------------------------|
|
|   PM-----|    PM----|    PM|
|   S  S S S  E S S S S  E S S  E
|---------------------------------|
|---------------------------------|
|---------------------------------|
|-------------9----------9------9-|
|------------11---------11-----11-|
|---0--0-0-0----0-0-0-0----0-0----|
|
|  +W
|---------------------------------|
|---------------------------------|
|-(13)----------------------------|
|---------------------------------|
|---------------------------------|
|---------------------------------|


   +W                                 E  E  E  E  E  E  E  E
|----------------------------------|-12----------------------|
|-(12)-----------------------------|----15-13-12----12-13-15-|
|----------------------------------|-------------14----------|
|----------------------------------|-------------------------|
|----------------------------------|-------------------------|
|----------------------------------|-------------------------|
|
|   PM-----|    PM----|    PM----|
|   S  S S S  E S S S S  E S S S S    W
|----------------------------------|-------------------------|
|----------------------------------|-------------------------|
|----------------------------------|-------------------------|
|-------------9----------9---------|-10----------------------|
|------------11---------11---------|--8----------------------|
|---0--0-0-0----0-0-0-0----0-0-0-0-|-------------------------|
|
|  +W                                 E  E  E  E  E  E  E  E
|----------------------------------|-------------------------|
|----------------------------------|-13-12----------------12-|
|-(13)-----------------------------|-------14-12----12-14----|
|----------------------------------|-------------15----------|
|----------------------------------|-------------------------|
|----------------------------------|-------------------------|


    E   E  E  E  E  E  E  E    W            W
|--12--------------------12-|-13--------|--13b15----||
|------15-13-12----12-13----|-----------|-----------||
|---------------14----------|-----------|-----------||
|---------------------------|-----------|-----------||
|---------------------------|-----------|-----------||
|---------------------------|-----------|-----------||
|
|  +H            H             W           +W
|---------------------------|-----------|-----------||
|---------------------------|-----------|-----------||
|---------------------------|-----------|-----------||
|-(10)----------10----------|-12--------|-(12)------||
|--(8)-----------8----------|-10--------|-(10)------||
|---------------------------|-----------|-----------||
|
|   E   E  E  E  E  E  E  E    W            W
|---------------------------|-----------|-----------||
|--13--12----------------13-|-15--------|--15b17----||
|---------14-12----12-14----|-----------|-----------||
|---------------15----------|-----------|-----------||
|---------------------------|-----------|-----------||
|---------------------------|-----------|-----------||


  W          W          W          Q.   Q.   Q
|----------|----------|----------|--------------|
|----------|----------|----------|--------------|
|----------|----------|----------|-5----4-------|
|----------|-5--------|-7--------|-----------5--|
|-7--------|----------|----------|--------------|
|----------|----------|----------|--------------|
|
| W          W          W          W
|----------|----------|----------|--------------|
|----------|----------|----------|--------------|
|----------|----------|----------|--------------|
|-5--------|-5--------|-2--------|--------------|
|-3--------|-2--------|-0--------|-2------------|
|----------|----------|----------|-0------------|


  W          W          W          W
|----------|----------|----------|------|
|----------|----------|----------|------|
|----------|----------|----------|------|
|----------|-7--------|----------|------|
|-8--------|----------|----------|------|
|----------|----------|-8--------|-7----|
|
| W          W          W          W
|----------|----------|----------|------|
|----------|----------|----------|------|
|----------|----------|----------|------|
|----------|----------|----------|------|
|-3--------|-3--------|-5--------|-5----|
|-1--------|-1--------|-3--------|-3----|


  W          W          W          Q.   Q.   Q
|----------|----------|----------|--------------|
|----------|----------|----------|--------------|
|----------|----------|----------|-5----4-------|
|----------|-5--------|-7--------|-----------5--|
|-7--------|----------|----------|--------------|
|----------|----------|----------|--------------|
|
| W          W          W          W
|----------|----------|----------|--------------|
|----------|----------|----------|--------------|
|----------|----------|----------|--------------|
|-5--------|-5--------|-2--------|--------------|
|-3--------|-2--------|-0--------|-2------------|
|----------|----------|----------|-0------------|


  W          W          W          W
|----------|----------|----------|------||
|----------|----------|----------|------||
|----------|----------|----------|-4----||
|----------|-7--------|-5--------|------||
|-8--------|----------|----------|------||
|----------|----------|----------|------||
|
| W          W          W          W
|----------|----------|----------|------||
|----------|----------|----------|------||
|----------|----------|----------|------||
|----------|----------|----------|------||
|-3--------|-3--------|-5--------|-7----||
|-1--------|-1--------|-3--------|-4----||


  E E E E E E E E    E  E E E E E E E   E E E E E E E E    E  E E E E E E E
|-8-7-5---8-7-5---|--8--7-5---8-7-5---|-8-7-5---8-7-5---|--8--7-5---8-7-5---|
|-------5-------5-|---------5-------5-|-------6-------6-|---------6-------6-|
|-----------------|-------------------|-----------------|-------------------|
|-----------------|-------------------|-----------------|-------------------|
|-----------------|-------------------|-----------------|-------------------|
|-----------------|-------------------|-----------------|-------------------|
|
| W                 +W                  W                 +W
|-----------------|-------------------|-----------------|-------------------|
|-----------------|-------------------|-----------------|-------------------|
|-----------------|-------------------|-----------------|-------------------|
|-----------------|-------------------|-----------------|-------------------|
|-7---------------|-(7)---------------|-3---------------|-(3)---------------|
|-5---------------|-(5)---------------|-1---------------|-(1)---------------|


   E E E E  E E E E    E  E E E  E E E E
|-10-8-7---10-8-7---|-10--8-7---10-8-7---|
|--------8--------8-|---------8--------8-|
|-------------------|--------------------|
|-------------------|--------------------|
|-------------------|--------------------|
|-------------------|--------------------|
|
|  W                  +W
|-------------------|--------------------|
|-------------------|--------------------|
|-------------------|--------------------|
|-------------------|--------------------|
|--5----------------|-(5)----------------|
|--3----------------|-(3)----------------|


   E  E E E  E  E E E    E  E  E  E  E  E  E  E
|-12-10-8---12-10-8---|-12----------12----------|
|---------8---------8-|----15-12-------15-12----|
|---------------------|----------13----------13-|
|---------------------|-------------------------|
|---------------------|-------------------------|
|---------------------|-------------------------|
|
|  W                     W
|---------------------|-------------------------|
|---------------------|-------------------------|
|---------------------|-------------------------|
|--5------------------|--9----------------------|
|--3------------------|--7----------------------|
|---------------------|-------------------------|


   E  E  E  E  E  E  E  E    E   E  E  E  E  E  E  E
|-12----------12----------|-12-----------12----------|
|----15-13-------15-13----|-----15-13-------15-13----|
|----------14----------14-|-----------14----------14-|
|-------------------------|--------------------------|
|-------------------------|--------------------------|
|-------------------------|--------------------------|
|
|  W                        +W
|-------------------------|--------------------------|
|-------------------------|--------------------------|
|-------------------------|--------------------------|
|-------------------------|--------------------------|
|--7----------------------|-(7)----------------------|
|--5----------------------|-(5)----------------------|
|
| Gtr V
|  E  E  E  E  E  E  E  E    E   E  E  E  E  E  E  E
|--8--7--5-----8--7--5----|--8---7--5-----8--7--5----|
|-----------5-----------5-|------------5-----------5-|
|-------------------------|--------------------------|
|-------------------------|--------------------------|
|-------------------------|--------------------------|
|-------------------------|--------------------------|


   E  E  E  E  E  E  E  E    E   E  E  E  E  E  E  E
|-13----------13----------|-13-----------13----------|
|----13----------13-------|-----13----------13-------|
|-------14----------14----|--------14----------14----|
|----------15----------15-|-----------15----------15-|
|-------------------------|--------------------------|
|-------------------------|--------------------------|
|
|  W                        +W
|-------------------------|--------------------------|
|-------------------------|--------------------------|
|-------------------------|--------------------------|
|-------------------------|--------------------------|
|--3----------------------|-(3)----------------------|
|--1----------------------|-(1)----------------------|
|
|  E  E  E  E  E  E  E  E    E   E  E  E  E  E  E  E
|--8-----------8----------|--8------------8----------|
|----10----------10-------|-----10----------10-------|
|-------10----------10----|--------10----------10----|
|----------10----------10-|-----------10----------10-|
|-------------------------|--------------------------|
|-------------------------|--------------------------|


   E  E  E  E  E  E  E  E    E  E  E  E  E  E  E  E
|-15----------15----------|-16-12-------16-12-------|
|----15----------15-------|-------12----------12----|
|-------16----------16----|----------13----------13-|
|----------17----------17-|-------------------------|
|-------------------------|-------------------------|
|-------------------------|-------------------------|
|
|  W                         W
|-------------------------|-------------------------|
|-------------------------|-------------------------|
|-------------------------|-------------------------|
|-------------------------|-------------------------|
|--5----------------------|--7----------------------|
|--3----------------------|--4----------------------|
|
|  E  E  E  E  E  E  E  E    E  E  E  E  E  E  E  E
|-10----------10----------|-12----------12----------|
|----12----------12-------|----12----------12-------|
|-------12----------12----|-------13----------13----|
|----------12----------12-|----------14----------14-|
|-------------------------|-------------------------|
|-------------------------|-------------------------|


               |---3---|   |----3----|
  W            Q   Q   Q   Q   Q    +Q
|-----------|------------------------------||
|-x\--------|------------------------------||
|-x\--------|--4b5-4b5-4b5-4b5-4b5==(4)r===||
|-x\--------|------------------------------||
|-x\--------|------------------------------||
|-----------|------------------------------||
|
| W           +W
|-----------|------------------------------||
|-----------|------------------------------||
|-----------|------------------------------||
|-----------|------------------------------||
|-7---------|-(7)--------------------------||
|-5---------|-(5)--------------------------||
|
| W            W
|-----------|------------------------------||
|-----------|------------------------------||
|-----------|------------------------------||
|-----------|------------------------------||
|-----------|------------------------------||
|-----------|------------------------------||


                              |----3----|     |----3----|
  E H..                       Q   Q     Q     Q   Q     Q
|---------------------------|---------------------------------|
|-5-------------------------|-----------------5---------------|
|---7-----------------------|-----5-----7---------7-----5-----|
|---------------------------|-7-------------------------------|
|---------------------------|---------------------------------|
|---------------------------|---------------------------------|
|
| PM-----------------------------------------------------------
| E E   S S S S E E S S S S   E E   S S   S S E E   S S   S S
|---------------------------|---------------------------------|
|---------------------------|---------------------------------|
|---------------------------|---------------------------------|
|---------------------------|---------------------------------|
|-7-7---7-7-7-7-7-7-7-7-7-7-|-7-7---7-7---7-7-7-7---7-7---7-7-|
|-5-5---5-5-5-5-5-5-5-5-5-5-|-5-5---5-5---5-5-5-5---5-5---5-5-|
|
|                             |----3----|     |----3----|
| E H..                       Q   Q     Q     Q   Q     Q
|---------------------------|---------------------------------|
|---------------------------|---------------------------------|
|-5-------------------------|-----------4-----5---4-----------|
|---7-----------------------|-----7---------------------7-----|
|---------------------------|-7-------------------------------|
|---------------------------|---------------------------------|


                             |----3----|     |----3----|
  Q.       Q     E E   E     Q   Q     Q     Q   Q     Q
|--------------------------|---------------------------------|
|-5------------------------|-----------------5---------------|
|----------5-----------5---|-----5-----7---------7-----5-----|
|------------------7-------|-7-------------------------------|
|----------------8---------|---------------------------------|
|--------------------------|---------------------------------|
|
|----------------------------------------------------------|
| E  E S S S S E E S S S S   E E   S S   S S E E   S S   S S
|--------------------------|---------------------------------|
|--------------------------|---------------------------------|
|--------------------------|---------------------------------|
|--------------------------|---------------------------------|
|-3--3-3-3-3-3-3-3-3-3-3-3-|-3-3---3-3---3-3-3-3---3-3---3-3-|
|-1--1-1-1-1-1-1-1-1-1-1-1-|-1-1---1-1---1-1-1-1---1-1---1-1-|
|
|                            |----3----|     |----3----|
| Q.       Q     E E   E     Q   Q     Q     Q   Q     Q
|--------------------------|---------------------------------|
|--------------------------|---------------------------------|
|-5------------------------|-----------4-----5---4-----------|
|----------------------7---|-----7---------------------7-----|
|----------8-------8-------|-7-------------------------------|
|----------------8---------|---------------------------------|


  Q.       Q     E E   E     Q.       Q       Q     E
|--------------------------|----------------------------|
|-5------------------------|-7--------7b8-----7-----5---|
|----------------------7---|----------------------------|
|----------7-----4-7-------|----------------------------|
|--------------------------|----------------------------|
|--------------------------|----------------------------|
|
| PM-----------------------------------------------------
| E  E S S S S E E S S S S   E  E S S S   S E E S S S S
|--------------------------|----------------------------|
|--------------------------|----------------------------|
|--------------------------|----------------------------|
|--------------------------|----------------------------|
|-5--5-5-5-5-5-5-5-5-5-5-5-|-5--5-5-5-5---5-5-5-5-5-5-5-|
|-2--2-2-2-2-2-2-2-2-2-2-2-|-2--2-2-2-2---2-2-2-2-2-2-2-|
|
| Q.       Q     E E   E     Q.       Q       Q     E
|--------------------------|----------------------------|
|--------------------------|----------------------------|
|-5------------------------|-7--------7b9-----7-----5---|
|----------4-------4---7---|----------------------------|
|----------------5---------|----------------------------|
|--------------------------|----------------------------|


  Q.       E   E.   S S S E     Q   Q        Q.        S  S
|-----------------------------|-------------12--------13-12---|
|--------------5----3h5p3-----|-----9-------------------------|
|-7--------7--------------5---|-4-----------------------------|
|-----------------------------|-------------------------------|
|-----------------------------|-------------------------------|
|-----------------------------|-------------------------------|
|
|--------------------------------------------------------|
| E  E S S S S E  E   S S S S   E E S S S S  E  E S S  S  S
|-----------------------------|-------------------------------|
|-----------------------------|-------------------------------|
|-----------------------------|-------------------------------|
|-----------------------------|-------------------------------|
|-5--5-5-5-5-5-5--5---5-5-5-5-|-5-5-5-5-5-5--5--5-5-5--5--5---|
|-3--3-3-3-3-3-3--3---3-3-3-3-|-3-3-3-3-3-3--3--3-3-3--3--3---|
|
| Q.       E   E.   S S S E     Q   Q        Q.        S  S
|-----------------------------|-------------------------------|
|-----------------------------|-------------12--------15-13---|
|-4--------4---5----4h5p4-----|-----9-------------------------|
|-------------------------7---|-6-----------------------------|
|-----------------------------|-------------------------------|
|-----------------------------|-------------------------------|


                              PM------------------------------------------|
   W                          S  S  S  S  S  S  S  S  S  S  S  S  S  S  S  S
|--------------------------|-------------------------------------12-12-13-13-|
|-13-----------------------|-------------------12-12-13-13-15-15-------------|
|--------------------------|-14-14-13-13-14-14-------------------------------|
|--------------------------|-------------------------------------------------|
|--------------------------|-------------------------------------------------|
|--------------------------|-------------------------------------------------|
|
|  PM-------------------------------------------------------------------------
|  E E S S S S E E S S S S    E     E     S  S  S  S  E     E     S  S  S  S
|--------------------------|-------------------------------------------------|
|--------------------------|-------------------------------------------------|
|--------------------------|-------------------------------------------------|
|--------------------------|-------------------------------------------------|
|--7-7-7-7-7-7-7-7-7-7-7-7-|--7-----7-----7--7--7--7--7-----7-----7--7--7--7-|
|--5-5-5-5-5-5-5-5-5-5-5-5-|--5-----5-----5--5--5--5--5-----5-----5--5--5--5-|
|
|                             PM------------------------------------------|
|  W                          S  S  S  S  S  S  S  S  S  S  S  S  S  S  S  S
|--------------------------|-------------------------------------------------|
|--------------------------|-------------------------------12-12-13-13-15-15-|
|-14-----------------------|-------------------13-13-14-14-------------------|
|--------------------------|-14-14-12-12-14-14-------------------------------|
|--------------------------|-------------------------------------------------|
|--------------------------|-------------------------------------------------|


   Q.        E    E.    S  S  S  E      H            E.      E.      E
|-12--------12---13----12h13p12------|--------------13b15---13------12-----|
|-------------------------------13---|-------------------------------------|
|------------------------------------|-12----------------------------------|
|------------------------------------|-------------------------------------|
|------------------------------------|-------------------------------------|
|------------------------------------|-------------------------------------|
|
|----------------------------------------------------------------------|
|  E  E S S  S S  E  E     S  S  S S    E E S S S S  E    E     S S  S S
|------------------------------------|-------------------------------------|
|------------------------------------|-------------------------------------|
|------------------------------------|-------------------------------------|
|--5--5-5-5--5-5--5--5-----5--5--5-5-|--5-5-5-5-5-5--5----5-----5-5--5-5---|
|--3--3-3-3--3-3--3--3-----3--3--3-3-|--3-3-3-3-3-3--3----3-----3-3--3-3---|
|------------------------------------|-------------------------------------|
|
|  Q.        E    E.    S  S  S  E      H            E.      E.      E
|------------------------------------|-------------------------------------|
|-13--------13---15----13h15p13------|--------------15b17---15------13-----|
|-------------------------------12---|-------------------------------------|
|------------------------------------|-14----------------------------------|
|------------------------------------|-------------------------------------|
|------------------------------------|-------------------------------------|


   E  E  E    E    E  E  E    E      E  E  E    E    E  E  E    E
|------------12---15-13-12---15s==|=17-15-13---12---15-13-12--------|
|-14----14------------------------|----------------------------15---|
|----14---------------------------|---------------------------------|
|---------------------------------|---------------------------------|
|---------------------------------|---------------------------------|
|---------------------------------|---------------------------------|
|
|  PM----------------------------------------------------------------
|  E  E  S S  S S  E  E  S S  S S    E  E  S S  S S  E  E  S S  S S
|---------------------------------|---------------------------------|
|---------------------------------|---------------------------------|
|---------------------------------|---------------------------------|
|--7--7--7-7--7-7--7--7--7-7--7-7-|--7--7--7-7--7-7--7--7--7-7--7-7-|
|--6--6--6-6--6-6--6--6--6-6--6-6-|--6--6--6-6--6-6--6--6--6-6--6-6-|
|---------------------------------|---------------------------------|
|
|  E  E  E    E    E  E  E    E      E  E  E    E    E  E  E    E
|-----------------12---------12s==|=13-12-----------12--------------|
|------------14------15-14--------|-------15---14------15-14--------|
|-14----14------------------------|----------------------------14---|
|----14---------------------------|---------------------------------|
|---------------------------------|---------------------------------|
|---------------------------------|---------------------------------|


      |--3--|                                    |---3---|
   E  S  S  S  E    E    E  E  E    E      E  E  S  S    S  E    E  Q     E
|-13-12h13p12-----------12--------------|------------------------------------||
|-------------15---13------15-13--------|-12-13-12h13p==12------12-------12--||
|----------------------------------14---|------------------14------11--------||
|---------------------------------------|------------------------------------||
|---------------------------------------|------------------------------------||
|---------------------------------------|------------------------------------||
|
|-------------------------------------------------------------|
|  E  E        S S  S S  E  E  S S  S S    E  E  S    S     S S  E  Q     E
|---------------------------------------|------------------------------------||
|---------------------------------------|------------------------------------||
|---------------------------------------|------------------------------------||
|--7--7--------7-7--7-7--7--7--7-7--7-7-|--4--4--4----4-----4-4--4-----------||
|--5--5--------5-5--5-5--5--5--5-5--5-5-|--2--2--2----2-----2-2--2--0-----2--||
|---------------------------------------|------------------------------------||
|
|     |--3--|
|  E  S  S  S  E    E    E  E  E    E      E  E  E          E    E  E  E  E
|---------------------------------------|------------------------------------||
|-15-13h15p13-12--------13-12-----------|--------------------------------16--||
|------------------14---------14---11---|-----------------------------16-----||
|---------------------------------------|-13---------------13---13-16--------||
|---------------------------------------|-------14---------------------------||
|---------------------------------------|----14------------------------------||


                                                    |---3---|
   Q.        E        +E   E  E    E      Q.        S  S    S  E  E  E    E
|--------------------------------------|--------------------------------------|
|-17--------17b19====(17)r15-13---12---|-13--------12h13p==12----12-13--------|
|--------------------------------------|----------------------14---------14---|
|--------------------------------------|--------------------------------------|
|--------------------------------------|--------------------------------------|
|--------------------------------------|--------------------------------------|
|
|  PM--------------------------------------------------------------------------
|  E  E S S  S     S   E   E  S S  S S    E  E S S  S    S     E  E  S S  S S
|--------------------------------------|--------------------------------------|
|--------------------------------------|--------------------------------------|
|--------------------------------------|--------------------------------------|
|--5--5-5-5--5-----5---5---5--5-5--5-5-|--7--7-7-7--7----7-----7--7--7-7--7-7-|
|--3--3-3-3--3-----3---3---3--3-3--3-3-|--5--5-5-5--5----5-----5--5--5-5--5-5-|
|--------------------------------------|--------------------------------------|
|
|                                                   |---3---|
|  Q.        E        +E   E  E    E      Q.        S  S    S  E  E  E    E
|--------------------------------------|--------------------------------------|
|-13--------13b14====(13)r12-----------|--------------------------------------|
|----------------------------14---12---|-14--------12h14p==12-11-12-14---11---|
|--------------------------------------|--------------------------------------|
|--------------------------------------|--------------------------------------|
|--------------------------------------|--------------------------------------|


   Q.        E        +E   E  E    E      Q.        E        +E   E  E    E
|--------------------------------------|---------------------------------------|
|-16--------16b17====(16)r13-12--------|-12--------12b13====(12)r==============|
|---------------------------------14---|-------------------------14-12---11----|
|--------------------------------------|---------------------------------------|
|--------------------------------------|---------------------------------------|
|--------------------------------------|---------------------------------------|
|
|---------------------------------------------------------------------------|
|  E  E S S  S     S   E   E  S S  S S    E  E S S  S     S   E   E  S S  S S
|--------------------------------------|---------------------------------------|
|--------------------------------------|---------------------------------------|
|--------------------------------------|---------------------------------------|
|--4--4-4-4--4-----4---4---4--4-4--4-4-|---------------------------------------|
|--2--2-2-2--2-----2---2---2--2-2--2-2-|--2--2-2-2--2-----2---2---2--2-2--2-2--|
|--------------------------------------|--0--0-0-0--0-----0---0---0--0-0--0-0--|
|
|  Q.        E        +E   E  E    E      Q.        E        +E   E  E    E
|--------------------------------------|---------------------------------------|
|-12--------12b13====(12)r=============|=======================================|
|-------------------------14-12---11---|-12--------12b14====(12)r11------------|
|--------------------------------------|----------------------------14---12----|
|--------------------------------------|---------------------------------------|
|--------------------------------------|---------------------------------------|


   PM-------------------------------------------------------------------------------------------|
   S  S  S  S  S  S  S  S  S  S  S  S  S  S  S  S    S  S  S  S  S  S  S  S  S  S  S  S  S  S  S  S
|-------------------------------------------------|------------------------------------------------|
|-------------------------------------------------|-------------------------12-12-------12-12-13-13|
|-------------------11-11-------11-11-12-12-11-11-|-12-12-14-14-12-12-14-14-------14-14------------|
|-14-14-12-12-14-14-------14-14-------------------|------------------------------------------------|
|-------------------------------------------------|------------------------------------------------|
|-------------------------------------------------|------------------------------------------------|
|
|  PM----------------------------------------------------------------------------------------------
|  E     E     S  S  S  S  E     E     S  S  S  S    E     E     S  S  S  S  E     E     S  S  S  S
|-------------------------------------------------|------------------------------------------------|
|-------------------------------------------------|------------------------------------------------|
|-------------------------------------------------|------------------------------------------------|
|--5-----5-----5--5--5--5--5-----5-----5--5--5--5-|--7-----7-----7--7--7--7--7-----7-----7--7--7--7|
|--3-----3-----3--3--3--3--3-----3-----3--3--3--3-|--4-----4-----4--4--4--4--4-----4-----4--4--4--4|
|-------------------------------------------------|------------------------------------------------|
|
|  PM-------------------------------------------------------------------------------------------|
|  S  S  S  S  S  S  S  S  S  S  S  S  S  S  S  S    S  S  S  S  S  S  S  S  S  S  S  S  S  S  S  S
|-------------------------------------------------|------------------------------------------------|
|-------------------------------------------------|------------------------------------------------|
|-------------------------------------------------|-------11-11-------11-11-12-12-11-11-12-12-14-14|
|-------------------12-12-------12-12-14-14-12-12-|-14-14-------14-14------------------------------|
|-15-15-14-14-15-15-------15-15-------------------|------------------------------------------------|
|-------------------------------------------------|------------------------------------------------|


      |--3--|
   E  S  S  S  E    E    E  E  E    E      E  E  E    E    E  E  E  E
|---------------------------------------|------------14---15-14-15-17-|
|-15-13h15p13-12--------------12---13---|-16----16--------------------|
|------------------11---12-14-----------|----16-----------------------|
|---------------------------------------|-----------------------------|
|---------------------------------------|-----------------------------|
|---------------------------------------|-----------------------------|
|
|-------------------------------------------------------|
|  E  E        S S  S S  E  E  S S  S S    E  E  S S  S S  E  Q     E
|---------------------------------------|-----------------------------|
|---------------------------------------|-----------------------------|
|---------------------------------------|-----------------------------|
|--7--7--------7-7--7-7--7--7--7-7--7-7-|--4--4--4-4--4-4--4----------|
|--5--5--------5-5--5-5--5--5--5-5--5-5-|--2--2--2-2--2-2--2--0-----2-|
|---------------------------------------|-----------------------------|
|
|     |--3--|
|  E  S  S  S  E    E    E  E  E    E      E  E  E    E    E  E  E  E
|---------------------------------------|--------------------------14-|
|-12-10h12p10---------------------------|------------16---17-16-17----|
|-------------12---14------11-12---14---|-16----16--------------------|
|-----------------------14--------------|----16-----------------------|
|---------------------------------------|-----------------------------|
|---------------------------------------|-----------------------------|


                     |-----3-----|        |-----3-----|      |-----3-----|
   Q       E    E    Q    Q      Q        Q    Q      Q      Q    Q      Q
|--------------17---19---17------------|-22---20-----19-----17---19-----20-----|
|-18b20---20--------------------20-----|---------------------------------------|
|--------------------------------------|---------------------------------------|
|--------------------------------------|---------------------------------------|
|--------------------------------------|---------------------------------------|
|--------------------------------------|---------------------------------------|
|
|  PM---------------------------------------------------------------------------
|  E    E  S S  S S  E E    S S    S S    E E    S S    S S  E E    S S    S S
|--------------------------------------|---------------------------------------|
|--------------------------------------|---------------------------------------|
|--------------------------------------|---------------------------------------|
|--5----5--5-5--5-5--5-5----5-5----5-5-|--7-7----7-7----7-7--7-7----7-7----7-7-|
|--3----3--3-3--3-3--3-3----3-3----3-3-|--5-5----5-5----5-5--5-5----5-5----5-5-|
|--------------------------------------|---------------------------------------|
|
|                    |-----3-----|        |-----3-----|      |-----3-----|
|  Q       E    E    Q    Q      Q        Q    Q      Q      Q    Q      Q
|--------------------------------------|-19---17------------------------17-----|
|---------17---19---20---19-----17-----|-------------20-----19---20------------|
|-19b21--------------------------------|---------------------------------------|
|--------------------------------------|---------------------------------------|
|--------------------------------------|---------------------------------------|
|--------------------------------------|---------------------------------------|


                     |-----3-----|
   Q       E    E    Q    Q      Q        E  E  E    E    E  E  E    E
|---------14---15---17---15-----14-----|-22-20-19--------20-19-----------|
|-17b19--------------------------------|------------20---------22---20---|
|--------------------------------------|---------------------------------|
|--------------------------------------|---------------------------------|
|--------------------------------------|---------------------------------|
|--------------------------------------|---------------------------------|
|
|----------------------------------------------------------------------|
|  E    E  S S  S S  E E    S S    S S    E  E  S S  S S  E  E  S S  S S
|--------------------------------------|---------------------------------|
|--------------------------------------|---------------------------------|
|--------------------------------------|---------------------------------|
|--9----9--9-9--9-9--9-9----9-9----9-9-|--9--9--9-9--9-9--9--9--9-9--9-9-|
|--6----6--6-6--6-6--6-6----6-6----6-6-|--7--7--7-7--7-7--7--7--7-7--7-7-|
|--------------------------------------|---------------------------------|
|
|                    |-----3-----|
|  Q       E    E    Q    Q      Q        E  E  E    E    E  E  E    E
|--------------------------------------|-19------------------------------|
|---------16---17---19---17-----16-----|----22-20---19---22-20-19--------|
|-18b20--------------------------------|----------------------------21---|
|--------------------------------------|---------------------------------|
|--------------------------------------|---------------------------------|
|--------------------------------------|---------------------------------|


   H.                  Q             H               Q    Q
|-12------------------14----------|-15--------------17---19-------|
|-15b17---------------17b19-------|-18b20-------------------------|
|---------------------------------|-------------------------------|
|---------------------------------|-------------------------------|
|---------------------------------|-------------------------------|
|---------------------------------|-------------------------------|
|
|  PM-----------------------------------------------------------|
|  E    E S S S S E E  S    S S S    E    E S S S S  E E  S S S S
|---------------------------------|-------------------------------|
|---------------------------------|-------------------------------|
|---------------------------------|-------------------------------|
|--5----5-5-5-5-5-5-5--5----5-5-5-|--5----5-5-5-5-5--5-5--5-5-5-5-|
|--3----3-3-3-3-3-3-3--3----3-3-3-|--3----3-3-3-3-3--3-3--3-3-3-3-|
|---------------------------------|-------------------------------|
|
|  H.                  Q             H               Q    Q
|---------------------------------|-------------------------------|
|-13------------------15----------|-17--------------19---20-------|
|-15b17---------------17b19-------|-19b21-------------------------|
|---------------------------------|-------------------------------|
|---------------------------------|-------------------------------|
|---------------------------------|-------------------------------|


   H.       S  S  S  S    Q.    Q.         +Q
|-22-------24-22-20-19-|---------------------------||
|----------------------|-22----22b24======(22)r====||
|----------------------|---------------------------||
|----------------------|---------------------------||
|----------------------|---------------------------||
|----------------------|---------------------------||
|
|  W                      H           H
|----------------------|---------------------------||
|----------------------|---------------------------||
|----------------------|---------------------------||
|--7-------------------|--9------------------------||
|--5-------------------|--6-----------9\-----------||
|----------------------|--------------7\-----------||
|
|  H.       S  S  S  S    Q.    Q.         +Q
|-19-------20-19-------|---------------------------||
|----------------22-20-|-19----19b20======(19)r====||
|----------------------|---------------------------||
|----------------------|---------------------------||
|----------------------|---------------------------||
|----------------------|---------------------------||


   W                            +W
|----------------------------|------------------------------|
|-20-------------------------|-(20)-------------------------|
|----------------------------|------------------------------|
|----------------------------|------------------------------|
|----------------------------|------------------------------|
|----------------------------|------------------------------|
|
|  PM----|   PM----|   PM|       PM-----|   PM----|   PM|
|  S S S S E S S S S E S S E     S  S S S E S S S S E S S E
|----------------------------|------------------------------|
|----------------------------|------------------------------|
|----------------------------|------------------------------|
|----------------------------|------------------------------|
|----------5---------5-----7-|------------5---------5-----7-|
|--0-0-0-0-3-0-0-0-0-3-0-0-5-|---0--0-0-0-3-0-0-0-0-3-0-0-5-|
|
|  W                            +W
|----------------------------|------------------------------|
|----------------------------|------------------------------|
|-21-------------------------|-(21)-------------------------|
|----------------------------|------------------------------|
|----------------------------|------------------------------|
|----------------------------|------------------------------|


   +W                            W
|------------------------------|----------------|
|-(20)-------------------------|-x\-------------|
|------------------------------|-x\-------------|
|------------------------------|-x\-------------|
|------------------------------|-x\-------------|
|------------------------------|----------------|
|
|   PM-----|   PM----|   PM|
|   S  S S S E S S S S E S S E   E  Q  E E Q  E
|------------------------------|----------------|
|------------------------------|----------------|
|------------------------------|----------------|
|------------------------------|----4--4-5-4--5-|
|------------5---------5-----7-|----5--5-5-5--5-|
|---0--0-0-0-3-0-0-0-0-3-0-0-5-|----------------|
|
|  +W                            W
|------------------------------|----------------|
|------------------------------|----------------|
|-(21)-------------------------|----------------|
|------------------------------|----------------|
|------------------------------|----------------|
|------------------------------|----------------|


  Gtr IV
  PM----|   PM----|   PM|     PM----|   PM----|   PM|
  S S S S E S S S S E S S E   S S S S E S S S S E S S E
|---------------------------|---------------------------|
|---------------------------|---------------------------|
|---------------------------|---------------------------|
|---------------------------|---------------------------|
|---------5---------5-----7-|---------5---------5-----7-|
|-0-0-0-0-3-0-0-0-0-3-0-0-5-|-0-0-0-0-3-0-0-0-0-3-0-0-5-|


  PM----|   PM----|   PM|
  S S S S E S S S S E S S E   W
|---------------------------|------||
|---------------------------|------||
|---------------------------|------||
|---------------------------|------||
|---------5---------5-----7-|-2----||
|-0-0-0-0-3-0-0-0-0-3-0-0-5-|-0----||


  Gtrs III, IV
  PM----|    PM----|    PM----|      PM----|   PM----|   PM---
  S S S S  E S S S S  E S S S S    E S S S S E S S S S E S S
|-------------------------------|----------------------------|
|-------------------------------|----------------------------|
|-------------------------------|----------------------------|
|----------9----------9---------|--9---------7---------5-----|
|---------10---------10---------|-10---------9---------7-----|
|-0-0-0-0----0-0-0-0----0-0-0-0-|----0-0-0-0---0-0-0-0---0-0-|


 -------|   PM----|   PM----|     PM----|   PM----|   PM|
  S S S S E S S S S E S S S S   E S S S S E S S S S E S S
|-----------------------------|-----------------------------|
|-----------------------------|-----------------------------|
|-----------------------------|-----------------------------|
|---------5---------5---------|-5---------4---------2-------|
|-3-3-3-3---3-3-3-3---3-3-3-3-|---3-3-3-3---3-3-3-3---3-3---|
|-----------------------------|-----------------------------|


  PM----|   PM----|   PM----|     PM----|   PM----|
  S S S S E S S S S E S S S S   E S S S S E S S S S E E
|-----------------------------|-------------------------|
|-----------------------------|-------------------------|
|-----------------------------|-------------------------|
|---------7---------4---------|-7---------4---------4-7-|
|-5-5-5-5---5-5-5-5---5-5-5-5-|---5-5-5-5---5-5-5-5-----|
|-----------------------------|-------------------------|


  PM----------|        PM--------|
  E E S S S S E Q  E   E E S S S S E E E E
|--------------------|----------------------|
|--------------------|----------------------|
|--------------------|----------------------|
|--------------------|-4-4-4-4-4-4----------|
|-5-5-5-5-5-5-5------|-2-2-2-2-2-2-2-0------|
|-3-3-3-3-3-3-3-5--3-|-----------------3-2--|


  PM----|    PM----|    PM----|
  S S S S  E S S S S  E S S S S
|-------------------------------|
|-------------------------------|
|-------------------------------|
|----------9----------9---------|
|---------10---------10---------|
|-0-0-0-0----0-0-0-0----0-0-0-0-|
|
| Gtr IV
| PM----|    PM----|    PM----|
| S S S S  E S S S S  E S S S S
|-------------------------------|
|-------------------------------|
|-------------------------------|
|----------9----------9---------|
|---------10---------10---------|
|-0-0-0-0----0-0-0-0----0-0-0-0-|


     PM----|   PM----|   PM|
   E S S S S E S S S S E S S   W          Q.   Q.   Q
|----------------------------|----------|---------------|
|----------------------------|----------|---------------|
|----------------------------|----------|---------------|
|--9---------7---------5-----|-5--------|-2----4----4---|
|-10---------9---------7-----|-3--------|---------------|
|----0-0-0-0---0-0-0-0---0-0-|----------|---------------|
|
|    PM----|   PM----|   PM|
|  E S S S S E S S S S E S S   W          Q.   Q.   Q
|----------------------------|----------|---------------|
|----------------------------|----------|---------------|
|----------------------------|----------|---------------|
|--9---------7---------5-----|-5--------|---------------|
|-10---------9---------7-----|-3--------|-3----5----7---|
|----0-0-0-0---0-0-0-0---0-0-|----------|---------------|


    PM----------------------------------------|
  E E S S S S E E S S S S   E E S S S S E E E E
|-------------------------|---------------------|
|-------------------------|---------------------|
|-------------------------|---------------------|
|-4-4-4-4-4-4-4-4-4-4-4-4-|-4-4-4-4-4-4-4---4-7-|
|-------------------------|---------------6-----|
|-------------------------|---------------------|
|
|   PM-------------------------------------------
| E E S S S S E E S S S S   E E S S S S E E E E
|-------------------------|---------------------|
|-------------------------|---------------------|
|-------------------------|---------------------|
|-7-7-7-7-7-7-7-7-7-7-7-7-|-9-9-9-9-9-9---------|
|-5-5-5-5-5-5-5-5-5-5-5-5-|-6-6-6-6-6-6-6---6-9-|
|-------------------------|---------------7-----|


    PM------------------|     PM|   PM|
  E E S S S S E E S S S S   E E E E E E Q
|-------------------------|------------------||
|-------------------------|------------------||
|-------------------------|------------------||
|-5-5-5-5-5-5-5-5-5-5-5-5-|-5-----5-----4----||
|-------------------------|------------------||
|-------------------------|---0-0---0-0------||
|
|-----------------------|     PM|   PM|
| E E S S S S E E S S S S   E E E E E E Q
|-------------------------|------------------||
|-------------------------|------------------||
|-------------------------|------------------||
|-9-9-9-9-9-9-9-9-9-9-9-9-|-9-----9-----7----||
|-7-7-7-7-7-7-7-7-7-7-7-7-|------------------||
|-------------------------|---0-0---0-0------||


  W          W          W          W
|----------|----------|----------|------|
|----------|----------|----------|------|
|----------|----------|----------|------|
|-2--------|-4--------|----------|-1----|
|----------|----------|-2--------|------|
|----------|----------|----------|------|
|
| W          W          W          W
|----------|----------|----------|------|
|----------|----------|----------|------|
|----------|----------|----------|------|
|-5--------|-7--------|----------|-4----|
|-3--------|-5--------|-5--------|-2----|
|----------|----------|-3--------|------|


  PM-----------------------------------------------------------------
  S S S S S S S S S S S S S S S S   S S S S S S S S S S S S S S S S
|---------------------------------|---------------------------------|
|---------------------------------|---------------------------------|
|---------------------------------|---------------------------------|
|-2-2-2-2-5-5-5-5-4-4-4-4-2-2-2-2-|-2-2-2-2-5-5-5-5-4-4-4-4-2-2-2-2-|
|---------------------------------|---------------------------------|
|---------------------------------|---------------------------------|
|
| PM-----------------------------------------------------------------
| E   E   S S S S E   E   S S S S   E   E   S S S S E   E   S S S S
|---------------------------------|---------------------------------|
|---------------------------------|---------------------------------|
|---------------------------------|---------------------------------|
|-5---5---5-5-5-5-5---5---5-5-5-5-|-7---7---7-7-7-7-7---7---7-7-7-7-|
|-3---3---3-3-3-3-3---3---3-3-3-3-|-4---4---4-4-4-4-4---4---4-4-4-4-|
|---------------------------------|---------------------------------|


 -------------------------------------------------|
  S S S S S S S S S S S S S S S S   S S S S S S S S E Q  E
|---------------------------------|-------------------------|
|---------------------------------|-------------------------|
|---------------------------------|-------------------------|
|-4-4-4-4-7-7-7-7-5-5-5-5-4-4-4-4-|-1-1-1-1-4-4-4-4---------|
|---------------------------------|-----------------2-0--2--|
|---------------------------------|-------------------------|
|
|---------------------------------------------------|
| E   E   S S S S E   E   S S S S   E   E   S S S S E Q  E
|---------------------------------|-------------------------|
|---------------------------------|-------------------------|
|---------------------------------|-------------------------|
|-7---7---7-7-7-7-7---7---7-7-7-7-|-4---4---4-4-4-4-4-------|
|-5---5---5-5-5-5-5---5---5-5-5-5-|-2---2---2-2-2-2-2-0--2--|
|---------------------------------|-------------------------|


  W          W          W          W          W          W
|----------|----------|----------|----------|----------|------||
|----------|----------|----------|----------|----------|------||
|----------|----------|----------|----------|----------|------||
|-2--------|-4--------|----------|-1--------|-2--------|-4----||
|----------|----------|-2--------|----------|----------|------||
|----------|----------|----------|----------|----------|------||
|
| W          W          W          W          W          W
|----------|----------|----------|----------|----------|------||
|----------|----------|----------|----------|----------|------||
|----------|----------|----------|----------|----------|------||
|-5--------|-7--------|----------|-4--------|-5--------|-7----||
|-3--------|-5--------|-5--------|-2--------|-3--------|-5----||
|----------|----------|-3--------|----------|----------|------||


  Gtrs III, IV
  PM----|   PM----|   PM|     PM----|   PM----|   PM|
  S S S S E S S S S E S S E   S S S S E S S S S E S S  E
|---------------------------|----------------------------|
|---------------------------|----------------------------|
|---------------------------|----------------------------|
|---------5---------5-----7-|---------7---------7------9-|
|---------7---------7-----9-|---------9---------9-----10-|
|-0-0-0-0---0-0-0-0---0-0---|-0-0-0-0---0-0-0-0---0-0----|


  PM----|    PM----|    PM|      PM----|    PM----|    PM|
  S S S S  E S S S S  E S S  E   S S S S  E S S S S  E S S  E
|------------------------------|---------------------------------|
|------------------------------|---------------------------------|
|------------------------------|---------------------------------|
|----------9----------9------9-|----------9----------9------9----|
|---------10---------10-----10-|---------10---------10-----10----|
|-0-0-0-0----0-0-0-0----0-0----|-0-0-0-0----0-0-0-0----0-0-------|


  PM----|   PM----|   PM|     PM----|   PM----|   PM|
  S S S S E S S S S E S S E   S S S S E S S S S E S S  E
|---------------------------|----------------------------|
|---------------------------|----------------------------|
|---------------------------|----------------------------|
|---------5---------5-----7-|---------7---------7------9-|
|---------7---------7-----9-|---------9---------9-----10-|
|-0-0-0-0---0-0-0-0---0-0---|-0-0-0-0---0-0-0-0---0-0----|


  PM----|    PM----|    PM|      PM----|    PM----|    PM----|
  S S S S  E S S S S  E S S  E   S S S S  E S S S S  E S S S S
|------------------------------|----------------------------------||
|------------------------------|----------------------------------||
|------------------------------|----------------------------------||
|----------9----------9------9-|----------9----------9------------||
|---------10---------10-----10-|---------10---------10------------||
|-0-0-0-0----0-0-0-0----0-0----|-0-0-0-0----0-0-0-0----0-0-0-0----||


   E  E  E  E  H       +H      E  E  E  E    W           +H      H
|-------------------|---------------------|-----------|------------------|
|-------------17----|-(17)----------------|-17--------|-(17)----17b18----|
|-17-16-17-19-------|---------17-16-17-19-|-----------|------------------|
|-------------------|---------------------|-----------|------------------|
|-------------------|---------------------|-----------|------------------|
|-------------------|---------------------|-----------|------------------|
|
| Gtr IV
|  W                   +W                    W           +H      H
|-------------------|---------------------|-----------|------------------|
|-------------------|---------------------|-----------|------------------|
|-------------------|---------------------|-----------|------------------|
|-10----------------|-(10)----------------|-10--------|-(10)----10-------|
|--8----------------|--(8)----------------|--8--------|--(8)-----8-------|
|-------------------|---------------------|-----------|------------------|
|
| Gtr V
|  E  E  E  E  H       +H      E  E  E  E    W           +H      H
|-------------------|---------------------|-----------|------------------|
|-------------------|---------------------|-----------|------------------|
|----------16-17----|-(17)-------------16-|-17--------|-(17)----16b17----|
|-19-17-19----------|---------19-17-19----|-----------|------------------|
|-------------------|---------------------|-----------|------------------|
|-------------------|---------------------|-----------|------------------|


   W                                  +W
|----------------------------------|-------------------------|
|-17-------------------------------|-(17)--------------------|
|----------------------------------|-------------------------|
|----------------------------------|-------------------------|
|----------------------------------|-------------------------|
|----------------------------------|-------------------------|
|
|  PM-------------------------------------------------|
|  S S S S S S S S S S S S S S S S     S  S S S S S S S H
|----------------------------------|-------------------------|
|----------------------------------|-------------------------|
|----------------------------------|-------------------------|
|----------------------------------|-------------------------|
|--2-2-2-2-2-2-2-2-2-2-2-2-2-2-2-2-|---2--2-2-2-2-2-2-2-3----|
|--0-0-0-0-0-0-0-0-0-0-0-0-0-0-0-0-|---0--0-0-0-0-0-0-0-1----|
|
|  W                                  +W
|----------------------------------|-------------------------|
|----------------------------------|-------------------------|
|-16-------------------------------|-(16)--------------------|
|----------------------------------|-------------------------|
|----------------------------------|-------------------------|
|----------------------------------|-------------------------|


  W                                 W
|---------------------------------|-----------------------------------|
|---------------------------------|-----------------------------------|
|---------------------------------|-----------------------------------|
|---------------------------------|-----------------------------------|
|---------------------------------|-----------------------------------|
|---------------------------------|-----------------------------------|
|
| PM--------------------------------------------------------------|
| S S S S S S S S S S S S S S S S   S S S S S S S S S S S S S S S S
|---------------------------------|-----------------------------------|
|---------------------------------|-----------------------------------|
|---------------------------------|-----------------------------------|
|---------------------------------|-----------------------------------|
|-2-2-2-2-2-2-2-2-2-2-2-2-2-2-2-2-|-2-2-2-2-2-2-2-2-2-2-2-2-2-2-2-2---|
|-0-0-0-0-0-0-0-0-0-0-0-0-0-0-0-0-|-0-0-0-0-0-0-0-0-0-0-0-0-0-0-0-0---|
|
| W                                 W
|---------------------------------|-----------------------------------|
|---------------------------------|-----------------------------------|
|---------------------------------|-----------------------------------|
|---------------------------------|-----------------------------------|
|---------------------------------|-----------------------------------|
|---------------------------------|-----------------------------------|


   E  E  E  E  H       +H      E  E  E  E    W           +H      H
|-------------------|---------------------|-----------|------------------|
|-------------17----|-(17)----------------|-17--------|-(17)----17b18----|
|-17-16-17-19-------|---------17-16-17-19-|-----------|------------------|
|-------------------|---------------------|-----------|------------------|
|-------------------|---------------------|-----------|------------------|
|-------------------|---------------------|-----------|------------------|
|
|  W                   +W                    W           +H      H
|-------------------|---------------------|-----------|------------------|
|-------------------|---------------------|-----------|------------------|
|-------------------|---------------------|-----------|------------------|
|-10----------------|-(10)----------------|-10--------|-(10)----10-------|
|--8----------------|--(8)----------------|--8--------|--(8)-----8-------|
|-------------------|---------------------|-----------|------------------|
|
|  E  E  E  E  H       +H      E  E  E  E    W           +H      H
|-------------------|---------------------|-----------|------------------|
|-------------------|---------------------|-----------|------------------|
|----------16-17----|-(17)-------------16-|-17--------|-(17)----16b17----|
|-19-17-19----------|---------19-17-19----|-----------|------------------|
|-------------------|---------------------|-----------|------------------|
|-------------------|---------------------|-----------|------------------|


   W                                  +W
|----------------------------------|-------------------------|
|-17-------------------------------|-(17)--------------------|
|----------------------------------|-------------------------|
|----------------------------------|-------------------------|
|----------------------------------|-------------------------|
|----------------------------------|-------------------------|
|
|  PM-------------------------------------------------|
|  S S S S S S S S S S S S S S S S     S  S S S S S S S H
|----------------------------------|-------------------------|
|----------------------------------|-------------------------|
|----------------------------------|-------------------------|
|----------------------------------|-------------------------|
|--2-2-2-2-2-2-2-2-2-2-2-2-2-2-2-2-|---2--2-2-2-2-2-2-2-3----|
|--0-0-0-0-0-0-0-0-0-0-0-0-0-0-0-0-|---0--0-0-0-0-0-0-0-1----|
|
|  W                                  +W
|----------------------------------|-------------------------|
|----------------------------------|-------------------------|
|-16-------------------------------|-(16)--------------------|
|----------------------------------|-------------------------|
|----------------------------------|-------------------------|
|----------------------------------|-------------------------|


  W                                 W
|---------------------------------|-----------------------------------|
|---------------------------------|-----------------------------------|
|---------------------------------|-----------------------------------|
|---------------------------------|-----------------------------------|
|---------------------------------|-----------------------------------|
|---------------------------------|-----------------------------------|
|
| PM--------------------------------------------------------------|
| S S S S S S S S S S S S S S S S   S S S S S S S S S S S S S S S S
|---------------------------------|-----------------------------------|
|---------------------------------|-----------------------------------|
|---------------------------------|-----------------------------------|
|---------------------------------|-----------------------------------|
|-2-2-2-2-2-2-2-2-2-2-2-2-2-2-2-2-|-2-2-2-2-2-2-2-2-2-2-2-2-2-2-2-2---|
|-0-0-0-0-0-0-0-0-0-0-0-0-0-0-0-0-|-0-0-0-0-0-0-0-0-0-0-0-0-0-0-0-0---|
|
| W                                 W
|---------------------------------|-----------------------------------|
|---------------------------------|-----------------------------------|
|---------------------------------|-----------------------------------|
|---------------------------------|-----------------------------------|
|---------------------------------|-----------------------------------|
|---------------------------------|-----------------------------------|


   E  E  E  E  H       +E   E  E  E  E  E  E  E    E  E  E  E  H       +W
|-------------------|---------------------------|-------------------|---------|
|-------------17----|-(17)-------------------17-|-------------------|---------|
|-17-16-17-19-------|------------16-17-16-17----|-19-17-16-17-19----|-(19)----|
|-------------------|---------19----------------|-------------------|---------|
|-------------------|------19-------------------|-------------------|---------|
|-------------------|---------------------------|-------------------|---------|
|
|  W                   +W                          W                   +W
|-------------------|---------------------------|-------------------|---------|
|-------------------|---------------------------|-------------------|---------|
|-------------------|---------------------------|-------------------|---------|
|-10----------------|-(10)----------------------|--9----------------|--(9)----|
|--8----------------|--(8)----------------------|--7----------------|--(7)----|
|-------------------|---------------------------|-------------------|---------|
|
|  E  E  E  E  H       +E   E  E  E  E  E  E  E    E  E  E  E  H       +W
|-------------------|---------------------------|-------------------|---------|
|-------------------|---------------------------|-------------------|---------|
|----------16-17----|-(17)-------------------17-|-16----------16----|-(16)----|
|-19-17-19----------|------------17-19-17-19----|----19-18-19-------|---------|
|-------------------|---------20----------------|-------------------|---------|
|-------------------|------20-------------------|-------------------|---------|


   E  E  E  E  H       +E   E  E  E  E  E  E  E
|-------------------|---------------------------|
|-------------17----|-(17)-------------------17-|
|-17-16-17-19-------|------------16-17-16-17----|
|-------------------|---------19----------------|
|-------------------|------19-------------------|
|-------------------|---------------------------|
|
|  W                   +W
|-------------------|---------------------------|
|-------------------|---------------------------|
|-------------------|---------------------------|
|-10----------------|-(10)----------------------|
|--8----------------|--(8)----------------------|
|-------------------|---------------------------|
|
|  E  E  E  E  H       +E   E  E  E  E  E  E  E
|-------------------|---------------------------|
|-------------------|---------------------------|
|----------16-17----|-(17)-------------------17-|
|-19-17-19----------|------------17-19-17-19----|
|-------------------|---------20----------------|
|-------------------|------20-------------------|


   E  E  E  E  E  E  E  E    E  E  E  E  E  E  Q
|-------------------------|-16----16-19-20-19-20b22--||
|-18-17----17-18-17-18-20-|----17--------------------||
|-------19----------------|--------------------------||
|-------------------------|--------------------------||
|-------------------------|--------------------------||
|-------------------------|--------------------------||
|
|  W                         W
|-------------------------|--------------------------||
|-------------------------|--------------------------||
|-------------------------|--------------------------||
|-------------------------|--------------------------||
|--5----------------------|--7-----------------------||
|--3----------------------|--4-----------------------||
|
|  E  E  E  E  E  E  E  E    E  E  E  E  E  E  Q
|-------------------------|----------16-17-16-17b19--||
|----------------------17-|-17----17-----------------||
|-19-17-16-17-19-17-19----|----16--------------------||
|-------------------------|--------------------------||
|-------------------------|--------------------------||
|-------------------------|--------------------------||


 Interlude (8:15)
  Q=82
  A5
  Gtr IV
   W                                 W
   |
   /

   W                                 W
|-20-------------------------------|---------------------------------||
|----------------------------------|---------------------------------||
|----------------------------------|---------------------------------||
|----------------------------------|---------------------------------||
|----------------------------------|---------------------------------||
|----------------------------------|---------------------------------||
|
| Gtr I
|  S S S S S S S S S S S S S S S S   S S S S S S S S S S S S S S S S
|----------------------------------|---------------------------------||
|--------0-----1-----------0---1---|-------0-----1-----------0---1---||
|--2-----------------2-------------|-2-----------------2-------------||
|----2-----2-----3-----2-----2---2-|---3-----3-----3-----3-----3---3-||
|------3-----3-----3-----3---------|-----3-----3-----3-----3---------||
|----------------------------------|---------------------------------||
|
|  W                                 W
|-17-------------------------------|---------------------------------||
|----------------------------------|---------------------------------||
|----------------------------------|---------------------------------||
|----------------------------------|---------------------------------||
|----------------------------------|---------------------------------||
|----------------------------------|---------------------------------||


  Gtr I
  S S S S S S S S S S S S S S S S   S S S S S S S S S S S S S S S S
|---------------------------------|---------------------------------|
|-------0-----1-----------0---1---|-------0-----1-----------0---1---|
|-2-----------------2-------------|-2-----------------2-------------|
|---2-----2-----3-----2-----2---2-|---3-----3-----3-----3-----3---3-|
|-----3-----3-----3-----3---------|-----3-----3-----3-----3---------|
|---------------------------------|---------------------------------|


  S S S S S S S S S S S S S S S S   S S S S S S S S S S S S S S S S
|---------------------------------|---------------------------------|
|-------0-----1-----3---------3---|-0-----1-----3-----0-----1---3---|
|-2-----------------------2-------|---0-----0-----0-----0-----0---0-|
|---4-0---4-0---4-0---4-0---4---4-|-----0-----0-----0-----0---------|
|---------------------------------|---------------------------------|
|---------------------------------|---------------------------------|


  S S S S S S S S S S S S S S S S   S S S S S S S S S S S S S S S S
|-------------------0---------0---|-------------0---------------0---|
|-0-----1-----3-----------3-------|-2-----3-----------2-----3-------|
|---1-----1-----1-----1-----1---1-|---2-----2-----2-----2-----2---2-|
|-----2-----2-----2-----2---------|-----2-----2-----2-----2---------|
|---------------------------------|---------------------------------|
|---------------------------------|---------------------------------|


  S S S S S S S S S S S S S S S S
|---------------------------------|
|-------------------0-----1---3---|
|-------------2-------------------|
|-3-----2-------------3-----3---3-|
|---3-0---3-0---3-0-----3---------|
|---------------------------------|


  S S S S S S S S S S S S S S S S   S S S S S S S S S S S S S S S S
|-0-----------0-----------0-------|-----0-----------0---------------|
|---0---3-0-----0---3-0-----0---3-|-0-----0---3-0-----0---3-0---3-0-|
|-----0-----0-----0-----0-----0---|---0-----0-----0-----1-----1-----|
|---------------------------------|---------------------------------|
|---------------------------------|---------------------------------|
|---------------------------------|---------------------------------|


  S S S S S S S S S S S S S S S S    S  S S S S S S S S S S S S  S S S
|-0-------0-------0-------0-------|--0--------0-------0-------0--------||
|---1-------1-------1-------1-----|-----1-------1-------1--------1-----||
|-----2-------2-------2-------2---|-------2-------2-------2--------2---||
|-------2-------2-------2-------2-|---------2-------2-------2--------2-||
|---------------------------------|------------------------------------||
|---------------------------------|------------------------------------||
|
| Gtr IV
| W                                 +H.                       Q
|---------------------------------|------------------------------------||
|---------------------------------|------------------------------------||
|---------------------------------|------------------------------------||
|-2-------------------------------|-(2)-----------------------x\-------||
|-0-------------------------------|-(0)-----------------------x\-------||
|---------------------------------|------------------------------------||


 Return (8:50)
  Gtrs III, IV
  Q  S S S S Q  S S S S   H    Q  E E   Q  S S S S H      H    H
|-----------------------|-------------|-----------------|-----------|
|-----------------------|-------------|-----------------|-----------|
|-----------------------|-------------|-----------------|-----------|
|-2---------------------|------5------|-----------------|-5----9----|
|-0--0-------3----------|-5----3--2---|-3----------5----|-3----7----|
|------3-1-0-1--1-0-1-2-|-3---------3-|-1--1-0-1-2-3----|-----------|


  Q  S S S S H      H    H      W          H    H
|-----------------|-----------|----------|-----------||
|-----------------|-----------|----------|-----------||
|-----------------|-----------|----------|-----------||
|-----------------|-----------|----------|-----------||
|-3----------5----|-7----7----|-3--------|-5----7----||
|-1--1-0-1-2-3----|-4----5----|-1--------|-3----4----||


  Q  S S S S Q  S S S S   H    Q  E E   Q  S S S S H      Q  +S  E S H
|-----------------------|-------------|-----------------|-----------------|
|-----------------------|-------------|-----------------|-----------------|
|-----------------------|-------------|-----------------|-----------------|
|-2---------------------|------5------|-----------------|-5--(5)----------|
|-0--0-------3----------|-5----3--2---|-3----------5----|-3--(3)-3-2-1----|
|------3-1-0-1--1-0-1-2-|-3---------3-|-1--1-0-1-2-3----|-----------------|


  H    Q  Q    H    H      W          H    H
|------------|-----------|----------|-----------||
|------------|-----------|----------|-----------||
|------------|-----------|----------|-----------||
|-3----------|------2----|----------|-----------||
|-0----5--3--|-2----0----|-3--------|-5----7----||
|------3--1--|-0---------|-1--------|-3----4----||


  Q=176
 3/4             4/4
  Q    E  E  Q    Q    E   E  E  E  E  E
|---------------|------------------------|
|-----17----17--|-----17-----17-18-17----|
|--------19-----|---------19----------19-|
|---------------|------------------------|
|---------------|------------------------|
|---------------|------------------------|
|
| Gtr IV
| E E  H          E E  H.
|---------------|------------------------|
|---------------|------------------------|
|---------------|------------------------|
|---------------|------------------------|
|-7-7-----------|-7-7--------------------|
|-5-5-----------|-5-5--------------------|
|
| Gtr V
| Q    E  E  Q    Q    E   E  E  E  E  E
|---------------|------------------------|
|---------------|------------------------|
|-----17-16-17--|-----17--16-17-19-17-16-|
|---------------|------------------------|
|---------------|------------------------|
|---------------|------------------------|


 3/4             4/4
  Q    E  E  Q    Q    E   E  E  E  E  E
|---------------|------------------------|
|-----17----17--|-----17-----17-18-17----|
|--------19-----|---------19----------19-|
|---------------|------------------------|
|---------------|------------------------|
|---------------|------------------------|
|
| E E  H          E E  H.
|---------------|------------------------|
|---------------|------------------------|
|---------------|------------------------|
|---------------|------------------------|
|-7-7-----------|-7-7--------------------|
|-5-5-----------|-5-5--------------------|
|
| Q    E  E  Q    Q    E   E  E  E  E  E
|---------------|------------------------|
|---------------|------------------------|
|-----17-16-17--|-----17--16-17-19-17-16-|
|---------------|------------------------|
|---------------|------------------------|
|---------------|------------------------|


 3/4             4/4
  Q    E  E  Q    Q    E   E  E  E  E  E
|---------------|------------------------|
|-----17----17--|-----17-----17-18-17----|
|--------19-----|---------19----------19-|
|---------------|------------------------|
|---------------|------------------------|
|---------------|------------------------|
|
| E E  H          E E  H.
|---------------|------------------------|
|---------------|------------------------|
|---------------|------------------------|
|---------------|------------------------|
|-3-3-----------|-3-3--------------------|
|-1-1-----------|-1-1--------------------|
|
| Q    E  E  Q    Q    E   E  E  E  E  E
|---------------|------------------------|
|---------------|------------------------|
|-----17-16-17--|-----17--16-17-19-17-16-|
|---------------|------------------------|
|---------------|------------------------|
|---------------|------------------------|


 3/4             4/4
  Q    E  E  Q    Q    E   E  E  E  E  E
|---------------|------------------------|
|-----17----17--|-----17-----17-18-17----|
|--------19-----|---------19----------19-|
|---------------|------------------------|
|---------------|------------------------|
|---------------|------------------------|
|
| E E  H          E E  H.
|---------------|------------------------|
|---------------|------------------------|
|---------------|------------------------|
|---------------|------------------------|
|-3-3-----------|-3-3--------------------|
|-1-1-----------|-1-1--------------------|
|
| Q    E  E  Q    Q    E   E  E  E  E  E
|---------------|------------------------|
|---------------|------------------------|
|-----17-16-17--|-----17--16-17-19-17-16-|
|---------------|------------------------|
|---------------|------------------------|
|---------------|------------------------|


 3/4             4/4
  Q    E  E  Q    Q    E   E  E  E  E  E
|---------------|------------------------|
|-----17----17--|-----17-----17-18-17----|
|--------19-----|---------19----------19-|
|---------------|------------------------|
|---------------|------------------------|
|---------------|------------------------|
|
| E E  H          E E  H.
|---------------|------------------------|
|---------------|------------------------|
|---------------|------------------------|
|---------------|------------------------|
|-7-7-----------|-7-7--------------------|
|-5-5-----------|-5-5--------------------|
|
| Q    E  E  Q    Q    E   E  E  E  E  E
|---------------|------------------------|
|---------------|------------------------|
|-----17-16-17--|-----17--16-17-19-17-16-|
|---------------|------------------------|
|---------------|------------------------|
|---------------|------------------------|


 3/4             4/4
  Q    E  E  Q    Q    E   E  E  E  E  E
|---------------|------------------------|
|-----17----17--|-----17-----17-18-17----|
|--------19-----|---------19----------19-|
|---------------|------------------------|
|---------------|------------------------|
|---------------|------------------------|
|
| E E  H          E E  H.
|---------------|------------------------|
|---------------|------------------------|
|---------------|------------------------|
|---------------|------------------------|
|-7-7-----------|-7-7--------------------|
|-5-5-----------|-5-5--------------------|
|
| Q    E  E  Q    Q    E   E  E  E  E  E
|---------------|------------------------|
|---------------|------------------------|
|-----17-16-17--|-----17--16-17-19-17-16-|
|---------------|------------------------|
|---------------|------------------------|
|---------------|------------------------|


 3/4             4/4
  Q    E  E  Q    Q    E   E  E  E  E  E
|---------------|------------------------|
|-----17----17--|-----17-----17-18-17----|
|--------19-----|---------19----------19-|
|---------------|------------------------|
|---------------|------------------------|
|---------------|------------------------|
|
| E E  H          E E  H.
|---------------|------------------------|
|---------------|------------------------|
|---------------|------------------------|
|---------------|------------------------|
|-3-3-----------|-3-3--------------------|
|-1-1-----------|-1-1--------------------|
|
| Q    E  E  Q    Q    E   E  E  E  E  E
|---------------|------------------------|
|---------------|------------------------|
|-----17-16-17--|-----17--16-17-19-17-16-|
|---------------|------------------------|
|---------------|------------------------|
|---------------|------------------------|


 3/4             4/4
  Q    E  E  Q    Q    E   E  E  E  E  E
|---------------|---------------16-17-19-||
|-----17----17--|-----17-----17----------||
|--------19-----|---------19-------------||
|---------------|------------------------||
|---------------|------------------------||
|---------------|------------------------||
|
| E E  H          E E  H.
|---------------|------------------------||
|---------------|------------------------||
|---------------|------------------------||
|---------------|------------------------||
|-2-2-----------|-2-2--------------------||
|-0-0-----------|-0-0--------------------||
|
| Q    E  E  Q    Q    E   E  E  E  E  E
|---------------|------------------------||
|---------------|------------------17-18-||
|-----16----16--|-----16-----16-17-------||
|--------19-----|---------19-------------||
|---------------|------------------------||
|---------------|------------------------||


 3/4                       4/4
  PM----|                   PM----|
  S S S S E   E   Q         S S S S E   E   E   E   E   E
|-------------------------|---------------------------------|
|---------5-------5-------|---------5-------5---6---5-------|
|-------------7-----------|-------------7---------------7---|
|-7-7-7-7-----------------|-7-7-7-7-------------------------|
|-------------------------|---------------------------------|
|-------------------------|---------------------------------|
|
| PM---------------------------------------------------------
| S S S S S S S S S S S S   S S S S S S S S S S S S S S S S
|-------------------------|---------------------------------|
|-------------------------|---------------------------------|
|-------------------------|---------------------------------|
|-------------------------|---------------------------------|
|-7-7-7-7-7-7-7-7-7-7-7-7-|-7-7-7-7-7-7-7-7-7-7-7-7-7-7-7-7-|
|-5-5-5-5-5-5-5-5-5-5-5-5-|-5-5-5-5-5-5-5-5-5-5-5-5-5-5-5-5-|
|
| PM----|                   PM----|
| S S S S E   E   Q         S S S S E   E   E   E   E   E
|-------------------------|---------------------------------|
|-------------------------|---------------------------------|
|---------5---4---5-------|---------5---4---5---7---5---4---|
|-7-7-7-7-----------------|-7-7-7-7-------------------------|
|-------------------------|---------------------------------|
|-------------------------|---------------------------------|


 3/4                       4/4
  PM----|                   PM----|
  S S S S E   E   Q         S S S S E   E   E   E   E   E
|-------------------------|------------------------------------|
|---------5-------5-------|---------5-------5---6---5----------|
|-------------7-----------|-------------7---------------7------|
|-7-7-7-7-----------------|-7-7-7-7----------------------------|
|-------------------------|------------------------------------|
|-------------------------|------------------------------------|
|
|---------------------------------------------------------|
| S S S S S S S S S S S S   S S S S S S S S S S S S S S S S
|-------------------------|------------------------------------|
|-------------------------|------------------------------------|
|-------------------------|------------------------------------|
|-------------------------|------------------------------------|
|-7-7-7-7-7-7-7-7-7-7-7-7-|-7-7-7-7-7-7-7-7-7-7-7-7-7-7-7-7----|
|-5-5-5-5-5-5-5-5-5-5-5-5-|-5-5-5-5-5-5-5-5-5-5-5-5-5-5-5-5----|
|
| PM----|                   PM----|
| S S S S E   E   Q         S S S S E   E   E   E   E   E
|-------------------------|------------------------------------|
|-------------------------|------------------------------------|
|---------5---4---5-------|---------5---4---5---7---5---4------|
|-7-7-7-7-----------------|-7-7-7-7----------------------------|
|-------------------------|------------------------------------|
|-------------------------|------------------------------------|


  F5
 3/4                       4/4
  Gtr IV
  S S S S S S S S S S S S   S S S S S S S S S S S S S S S S
  | | | | | | | | | | | |   | | | | | | | | | | | | | | | |
  / / / / / / / / / / / /   / / / / / / / / / / / / / / / /

  PM----|                   PM----|
  S S S S E   E   Q         S S S S E   E   E   E   E   E
|-------------------------|---------------------------------|
|---------5-------5-------|---------5-------5---6---5-------|
|-------------7-----------|-------------7---------------7---|
|-------------------------|---------------------------------|
|-8-8-8-8-----------------|-8-8-8-8-------------------------|
|-------------------------|---------------------------------|
|
| Gtr V
| PM----|                   PM----|
| S S S S E   E   Q         S S S S E   E   E   E   E   E
|-------------------------|---------------------------------|
|-------------------------|---------------------------------|
|---------5---4---5-------|---------5---4---5---7---5---4---|
|-------------------------|---------------------------------|
|-8-8-8-8-----------------|-8-8-8-8-------------------------|
|-------------------------|---------------------------------|


 3/4                       4/4
  S S S S S S S S S S S S   S S S S S S S S S S S S S S S S
  | | | | | | | | | | | |   | | | | | | | | | | | | | | | |
  / / / / / / / / / / / /   / / / / / / / / / / / / / / / /

  PM----|                   PM----|
  S S S S E   E   Q         S S S S E   E   E   E   E   E
|-------------------------|------------------------------------|
|---------5-------5-------|---------5-------5---6---5----------|
|-------------7-----------|-------------7---------------7------|
|-------------------------|------------------------------------|
|-8-8-8-8-----------------|-8-8-8-8----------------------------|
|-------------------------|------------------------------------|
|
| PM----|                   PM----|
| S S S S E   E   Q         S S S S E   E   E   E   E   E
|-------------------------|------------------------------------|
|-------------------------|------------------------------------|
|---------5---4---5-------|---------5---4---5---7---5---4------|
|-------------------------|------------------------------------|
|-8-8-8-8-----------------|-8-8-8-8----------------------------|
|-------------------------|------------------------------------|


  A5
 3/4                       4/4
  S S S S S S S S S S S S   S S S S S S S S S S S S S S S S
  | | | | | | | | | | | |   | | | | | | | | | | | | | | | |
  / / / / / / / / / / / /   / / / / / / / / / / / / / / / /

  PM----|                   PM----|
  S S S S E   E   Q         S S S S E   E   E   E   E   E
|-------------------------|---------------------------------|
|---------5-------5-------|---------5-------5---6---5-------|
|-------------7-----------|-------------7---------------7---|
|-7-7-7-7-----------------|-7-7-7-7-------------------------|
|-------------------------|---------------------------------|
|-------------------------|---------------------------------|
|
| PM----|                   PM----|
| S S S S E   E   Q         S S S S E   E   E   E   E   E
|-------------------------|---------------------------------|
|-------------------------|---------------------------------|
|---------5---4---5-------|---------5---4---5---7---5---4---|
|-7-7-7-7-----------------|-7-7-7-7-------------------------|
|-------------------------|---------------------------------|
|-------------------------|---------------------------------|
|
| Gtr I
| Q       E   E   Q         Q       E   E   E   E   E   E
|---------0-------0-------|---------0-------0---1---0-------|
|-------------3-----------|-------------3---------------3---|
|-------------------------|---------------------------------|
|-------------------------|---------------------------------|
|-------------------------|---------------------------------|
|-------------------------|---------------------------------|


 3/4                       4/4
  S S S S S S S S S S S S   S S S S S S S S S S S S S S S S
  | | | | | | | | | | | |   | | | | | | | | | | | | | | | |
  / / / / / / / / / / / /   / / / / / / / / / / / / / / / /

  PM----|                   PM----|
  S S S S E   E   Q         S S S S E   E   E   E   E   E
|-------------------------|------------------------------------|
|---------5-------5-------|---------5-------5---6---5----------|
|-------------7-----------|-------------7---------------7------|
|-7-7-7-7-----------------|-7-7-7-7----------------------------|
|-------------------------|------------------------------------|
|-------------------------|------------------------------------|
|
| PM----|                   PM----|
| S S S S E   E   Q         S S S S E   E   E   E   E   E
|-------------------------|------------------------------------|
|-------------------------|------------------------------------|
|---------5---4---5-------|---------5---4---5---7---5---4------|
|-7-7-7-7-----------------|-7-7-7-7----------------------------|
|-------------------------|------------------------------------|
|-------------------------|------------------------------------|
|
| Q       E   E   Q         Q       E   E   E   E   E   E
|---------0-------0-------|---------0-------0---1---0----------|
|-------------3-----------|-------------3---------------3------|
|-------------------------|------------------------------------|
|-------------------------|------------------------------------|
|-------------------------|------------------------------------|
|-------------------------|------------------------------------|


  F5
 3/4                       4/4
  S S S S S S S S S S S S   S S S S S S S S S S S S S S S S
  | | | | | | | | | | | |   | | | | | | | | | | | | | | | |
  / / / / / / / / / / / /   / / / / / / / / / / / / / / / /

  PM----|                   PM----|
  S S S S E   E   Q         S S S S E   E   E   E   E   E
|-------------------------|---------------------------------|
|---------5-------5-------|---------5-------5---6---5-------|
|-------------7-----------|-------------7---------------7---|
|-------------------------|---------------------------------|
|-8-8-8-8-----------------|-8-8-8-8-------------------------|
|-------------------------|---------------------------------|
|
| PM----|                   PM----|
| S S S S E   E   Q         S S S S E   E   E   E   E   E
|-------------------------|---------------------------------|
|-------------------------|---------------------------------|
|---------5---4---5-------|---------5---4---5---7---5---4---|
|-------------------------|---------------------------------|
|-8-8-8-8-----------------|-8-8-8-8-------------------------|
|-------------------------|---------------------------------|
|
| Q       E   E   Q         Q       E   E   E   E   E   E
|---------0-------0-------|---------0-------0---1---0-------|
|-------------3-----------|-------------3---------------3---|
|-------------------------|---------------------------------|
|-------------------------|---------------------------------|
|-------------------------|---------------------------------|
|-------------------------|---------------------------------|


  E5
 3/4                       4/4                               2/4
  S S S S S S S S S S S S   S S S S S S S S S S S S S S S S   S S S S S S S S
  | | | | | | | | | | | |   | | | | | | | | | | | | | | | |   | | | | | | | |
  / / / / / / / / / / / /   / / / / / / / / / / / / / / / /   / / / / / / / /

  PM----|                   PM----|
  S S S S E   E   Q         S S S S E   E   E   E   E   E     E   E   E   E
|-------------------------|---------------------------------|---------4---7---||
|---------5-------5-------|---------5-------5---6---5-------|-5---6-----------||
|-------------7-----------|-------------7---------------7---|-----------------||
|-------------------------|---------------------------------|-----------------||
|-7-7-7-7-----------------|-7-7-7-7-------------------------|-----------------||
|-------------------------|---------------------------------|-----------------||
|
| PM----|                   PM----|
| S S S S E   E   Q         S S S S E   E   E   E   E   E     E   E   E   E
|-------------------------|---------------------------------|-------------4---||
|-------------------------|---------------------------------|---------5-------||
|---------4-------4-------|---------4-------4---5---4-------|-4---5-----------||
|-------------7-----------|-------------7---------------7---|-----------------||
|-7-7-7-7-----------------|-7-7-7-7-------------------------|-----------------||
|-------------------------|---------------------------------|-----------------||
|
| Q       E   E   Q         Q       E   E   E   E   E   E     E   E   E   E
|---------0-------0-------|---------0-------0---1---0-------|-0---1---4---7---||
|-------------3-----------|-------------3---------------3---|-----------------||
|-------------------------|---------------------------------|-----------------||
|-------------------------|---------------------------------|-----------------||
|-------------------------|---------------------------------|-----------------||
|-------------------------|---------------------------------|-----------------||


 4/4
  Gtr I
   W                  W
   |
   o

   Q.    Q.    Q     +E   E  E  E  E  E  E  E
|-13--------------|------------13-15-13-12-13-|
|-------13--------|---------13----------------|
|-------------14--|-(14)-14-------------------|
|-----------------|---------------------------|
|-----------------|---------------------------|
|-----------------|---------------------------|
|
| Gtr IV
|  W                 +W
|-----------------|---------------------------|
|-----------------|---------------------------|
|-----------------|---------------------------|
|--7--------------|--(7)----------------------|
|--5--------------|--(5)----------------------|
|-----------------|---------------------------|
|
| Gtr V
|  Q.    Q.    Q     +E   E  E  E  E  E  E  E
|-----------------|---------------12----------|
|-13--------------|------------13----15-13-15-|
|-------14--------|---------14----------------|
|-------------15--|-(15)-15-------------------|
|-----------------|---------------------------|
|-----------------|---------------------------|


   W                  W
   Q.    Q.    Q     +E   E  E  E  E  E  E  E
|-12--------------|------------12-18-18-18-18-|
|-------13--------|---------13----------------|
|-------------12--|-(12)-12-------------------|
|-----------------|---------------------------|
|-----------------|---------------------------|
|-----------------|---------------------------|
|
|  W                 +W
|-----------------|---------------------------|
|-----------------|---------------------------|
|-----------------|---------------------------|
|--5--------------|--(5)----------------------|
|--3--------------|--(3)----------------------|
|-----------------|---------------------------|
|
|  Q.    Q.    Q     +E   E  E  E  E  E  E  E
|-----------------|---------------------------|
|-13--------------|------------13-18-18-18-18-|
|-------12--------|---------12----------------|
|-------------14--|-(14)-14-------------------|
|-----------------|---------------------------|
|-----------------|---------------------------|


   Q.    Q.    Q     +E   E  E  E  E  E  E  E
|-18--------------|------------18-20-18-17-18-|
|-------18--------|---------18----------------|
|-------------19--|-(19)-19-------------------|
|-----------------|---------------------------|
|-----------------|---------------------------|
|-----------------|---------------------------|
|
|  W                 +W
|-----------------|---------------------------|
|-----------------|---------------------------|
|-----------------|---------------------------|
|--3--------------|--(3)----------------------|
|--1--------------|--(1)----------------------|
|-----------------|---------------------------|
|
|  Q.    Q.    Q     +E   E  E  E  E  E  E  E
|-----------------|---------------------------|
|-18--------------|------------18-20-18-17-18-|
|-------19--------|---------19----------------|
|-------------20--|-(20)-20-------------------|
|-----------------|---------------------------|
|-----------------|---------------------------|


   Q.    Q.    Q     +E   E  E  E  E  E  E  E
|-17--------------|---------------------------|
|-------17--------|------------17-20-18-17----|
|-------------18--|-(18)----18-------------18-|
|-----------------|------19-------------------|
|-----------------|---------------------------|
|-----------------|---------------------------|
|
|  W                 +W
|-----------------|---------------------------|
|-----------------|---------------------------|
|-----------------|---------------------------|
|--2--------------|--(2)----------------------|
|--0--------------|--(0)----------------------|
|-----------------|---------------------------|
|
|  Q.    Q.    Q     +E   E  E  E  E  E  E  E
|-----------------|------------17-20-18-17----|
|-17--------------|---------17-------------17-|
|-------18--------|------18-------------------|
|-------------19--|-(19)----------------------|
|-----------------|---------------------------|
|-----------------|---------------------------|


   H.       E     +S   S    H      E  E  E  E
|------------------------|-----------------17-|
|-18-------18b20r(18)p17-|-18-----17-18-20----|
|------------------------|--------------------|
|------------------------|--------------------|
|------------------------|--------------------|
|------------------------|--------------------|
|
|  W                       +W
|------------------------|--------------------|
|------------------------|--------------------|
|------------------------|--------------------|
|--7---------------------|-(7)----------------|
|--5---------------------|-(5)----------------|
|------------------------|--------------------|
|
|  H.       E     +S   S    H      E  E  E  E
|------------------------|--------------------|
|------------------------|--------------17-18-|
|-19-------19b21r(19)p17-|-19-----17-19-------|
|------------------------|--------------------|
|------------------------|--------------------|
|------------------------|--------------------|


   Q.      E  Q.    E    H      E  E  E  E
|-17b18---17----------|-----------------17-|
|------------20----18-|-17-----17-18-20----|
|---------------------|--------------------|
|---------------------|--------------------|
|---------------------|--------------------|
|---------------------|--------------------|
|
|  W                    +W
|---------------------|--------------------|
|---------------------|--------------------|
|---------------------|--------------------|
|--5------------------|-(5)----------------|
|--3------------------|-(3)----------------|
|---------------------|--------------------|
|
|  Q.      E  Q.    E    H      E  E  E  E
|---------------------|--------------------|
|-18b20---18-17-------|--------------17-18-|
|------------------19-|-17-----17-19-------|
|---------------------|--------------------|
|---------------------|--------------------|
|---------------------|--------------------|


   Q.    E  H       +H      E  E  E  E
|----------------|------------------15-|
|-20----17-15----|-(15)----15-17-18----|
|----------------|---------------------|
|----------------|---------------------|
|----------------|---------------------|
|----------------|---------------------|
|
|  W                +W
|----------------|---------------------|
|----------------|---------------------|
|----------------|---------------------|
|--3-------------|--(3)----------------|
|--1-------------|--(1)----------------|
|----------------|---------------------|
|
|  Q.    E  H       +H      E  E  E  E
|----------------|---------------------|
|-17-------------|---------------15-17-|
|-------17-15----|-(15)----15-17-------|
|----------------|---------------------|
|----------------|---------------------|
|----------------|---------------------|


   Q.    S  S  H       E   E  E  E  E  E  E  E
|-------------------|--------------------10-12-||
|-18----17-15-14----|-----------10-11-13-------||
|-------------------|--9--10-12----------------||
|-------------------|--------------------------||
|-------------------|--------------------------||
|-------------------|--------------------------||
|
|  W                  +W
|-------------------|--------------------------||
|-------------------|--------------------------||
|-------------------|--------------------------||
|--2----------------|-(2)----------------------||
|--0----------------|-(0)----------------------||
|-------------------|--------------------------||
|
|  Q.    S  S  H       E   E  E  E  E  E  E  E
|-------------------|--------------------------||
|-15----14----------|-----------------10-11-13-||
|----------15-14----|---------9-10-12----------||
|-------------------|-11--12-------------------||
|-------------------|--------------------------||
|-------------------|--------------------------||


   S  S  S  S  S  S  S  S  S  S  S  S  S  S  S  S
|-13-13-12-10-13-13-12-10-13-13-12-10-13-13-12-10-|
|-------------------------------------------------|
|-------------------------------------------------|
|-------------------------------------------------|
|-------------------------------------------------|
|-------------------------------------------------|
|
|  W
|-------------------------------------------------|
|-------------------------------------------------|
|-------------------------------------------------|
|--3----------------------------------------------|
|--1----------------------------------------------|
|-------------------------------------------------|
|
|  S  S  S  S  S  S  S  S  S  S  S  S  S  S  S  S
|-------------------------------------------------|
|-15-15-13-11-15-15-13-11-15-15-13-11-15-15-13-11-|
|-------------------------------------------------|
|-------------------------------------------------|
|-------------------------------------------------|
|-------------------------------------------------|


   S  S  S  S  S  S  S  S  S  S  S  S  S  S  S  S
|-13-13-12-10-13-13-12-10-13-13-12-10-13-13-12-10-|
|-------------------------------------------------|
|-------------------------------------------------|
|-------------------------------------------------|
|-------------------------------------------------|
|-------------------------------------------------|
|
|  W
|-------------------------------------------------|
|-------------------------------------------------|
|-------------------------------------------------|
|--5----------------------------------------------|
|--2----------------------------------------------|
|-------------------------------------------------|
|
|  S  S  S  S  S  S  S  S  S  S  S  S  S  S  S  S
|-------------------------------------------------|
|-15-15-13-12-15-15-13-12-15-15-13-12-15-15-13-12-|
|-------------------------------------------------|
|-------------------------------------------------|
|-------------------------------------------------|
|-------------------------------------------------|


   S  S  S  S  S  S  S  S  S  S  S  S  S  S  S  S
|-15-15-13-12-15-15-13-12-15-15-13-12-15-15-13-12-|
|-------------------------------------------------|
|-------------------------------------------------|
|-------------------------------------------------|
|-------------------------------------------------|
|-------------------------------------------------|
|
|  W
|-------------------------------------------------|
|-------------------------------------------------|
|-------------------------------------------------|
|--5----------------------------------------------|
|--3----------------------------------------------|
|-------------------------------------------------|
|
|  S  S  S  S  S  S  S  S  S  S  S  S  S  S  S  S
|-------------------------------------------------|
|-17-17-15-13-17-17-15-13-17-17-15-13-17-17-15-13-|
|-------------------------------------------------|
|-------------------------------------------------|
|-------------------------------------------------|
|-------------------------------------------------|


   S  S  S  S  S  S  S  S  S  S  S  S  S  S  S  S
|-15-15-13-12-15-15-13-12-15-15-13-12-15-15-13-12-|
|-------------------------------------------------|
|-------------------------------------------------|
|-------------------------------------------------|
|-------------------------------------------------|
|-------------------------------------------------|
|
|  W
|-------------------------------------------------|
|-------------------------------------------------|
|-------------------------------------------------|
|--2----------------------------------------------|
|--0----------------------------------------------|
|-------------------------------------------------|
|
|  S  S  S  S  S  S  S  S  S  S  S  S  S  S  S  S
|-------------------------------------------------|
|-17-17-15-14-17-17-15-14-17-17-15-14-17-17-15-14-|
|-------------------------------------------------|
|-------------------------------------------------|
|-------------------------------------------------|
|-------------------------------------------------|


   S  S  S  S  S  S  S  S  S  S  S  S  S  S  S  S
|-17-17-15-13-17-17-15-13-17-17-15-13-17-17-15-13-|
|-------------------------------------------------|
|-------------------------------------------------|
|-------------------------------------------------|
|-------------------------------------------------|
|-------------------------------------------------|
|
|  W
|-------------------------------------------------|
|-------------------------------------------------|
|-------------------------------------------------|
|--3----------------------------------------------|
|--1----------------------------------------------|
|-------------------------------------------------|
|
|  S  S  S  S  S  S  S  S  S  S  S  S  S  S  S  S
|-------------------------------------------------|
|-18-18-17-15-18-18-17-15-18-18-17-15-18-18-17-15-|
|-------------------------------------------------|
|-------------------------------------------------|
|-------------------------------------------------|
|-------------------------------------------------|


   S   S  S  S  S  S  S  S  S  S  S  S  S  S  S  S
|-18--18-17-15-18-18-17-15-20-20-18-17-21-21-18-17-||
|--------------------------------------------------||
|--------------------------------------------------||
|--------------------------------------------------||
|--------------------------------------------------||
|--------------------------------------------------||
|
|  H.                                   Q
|--------------------------------------------------||
|--------------------------------------------------||
|--------------------------------------------------||
|--5------------------------------------7----------||
|--3------------------------------------4----------||
|--------------------------------------------------||
|
|  S   S  S  S  S  S  S  S  S  S  S  S  S  S  S  S
|--------------------------------------------------||
|-20--20-18-17-20-20-18-17-22-22-20-18-22-22-20-18-||
|--------------------------------------------------||
|--------------------------------------------------||
|--------------------------------------------------||
|--------------------------------------------------||


 3/4
   E  E  E  E  E  E    E  E  E  E  E  E
|-------------------|-------------10-12-|
|-------10-------10-|-11-10-11-13-------|
|-10-12----10-12----|-------------------|
|-------------------|-------------------|
|-------------------|-------------------|
|-------------------|-------------------|
|
|  PM------------------------------------
|  E  E  E  E  E  E    E  E  E  E  E  E
|-------------------|-------------------|
|-------------------|-------------------|
|-------------------|-------------------|
|--7--7--7--7--7--7-|--7--7--7--7--7--7-|
|--5--5--5--5--5--5-|--5--5--5--5--5--5-|
|-------------------|-------------------|
|
|  E  E  E  E  E  E    E  E  E  E  E  E
|-------------------|-------------------|
|-------------------|-------------------|
|-----9-10-----9-10-|-12-10-12--9-10-12-|
|-12-------12-------|-------------------|
|-------------------|-------------------|
|-------------------|-------------------|


   E  E  E  E  E  E    E  E  E  E  E  E
|-------------------|-------------10-12-|
|-------10-------10-|-11-10-11-13-------|
|-10-12----10-12----|-------------------|
|-------------------|-------------------|
|-------------------|-------------------|
|-------------------|-------------------|
|
|------------------------------------|
|  E  E  E  E  E  E    E  E  E  E  E  E
|-------------------|-------------------|
|-------------------|-------------------|
|-------------------|-------------------|
|--7--7--7--7--7--7-|--7--7--7--7--7--7-|
|--5--5--5--5--5--5-|--5--5--5--5--5--5-|
|-------------------|-------------------|
|
|  E  E  E  E  E  E    E  E  E  E  E  E
|-------------------|-------------------|
|-------------------|-------------------|
|-----9-10-----9-10-|-12-10-12--9-10-12-|
|-12-------12-------|-------------------|
|-------------------|-------------------|
|-------------------|-------------------|


   E  E  E  E  E  E    E  E  E  E  E  E
|-------------------|-------------10-12-|
|-------10-------10-|-11-10-11-13-------|
|-10-12----10-12----|-------------------|
|-------------------|-------------------|
|-------------------|-------------------|
|-------------------|-------------------|
|
|  PM------------------------------------
|  E  E  E  E  E  E    E  E  E  E  E  E
|-------------------|-------------------|
|-------------------|-------------------|
|-------------------|-------------------|
|--7--7--7--7--7--7-|--7--7--7--7--7--7-|
|--5--5--5--5--5--5-|--5--5--5--5--5--5-|
|-------------------|-------------------|
|
|  E  E  E  E  E  E    E  E  E  E  E  E
|-------------------|-------------------|
|-------------------|-------------------|
|-----9-10-----9-10-|-12-10-12--9-10-12-|
|-12-------12-------|-------------------|
|-------------------|-------------------|
|-------------------|-------------------|


   E  E  E  E  E  E    E  E  E  E  E  E
|-------------------|-------------10-12-||
|-------10-------10-|-11-10-11-13-------||
|-10-12----10-12----|-------------------||
|-------------------|-------------------||
|-------------------|-------------------||
|-------------------|-------------------||
|
|------------------------------------|
|  E  E  E  E  E  E    E  E  E  E  E  E
|-------------------|-------------------||
|-------------------|-------------------||
|-------------------|-------------------||
|--7--7--7--7--7--7-|--7--7--7--7--7--7-||
|--5--5--5--5--5--5-|--5--5--5--5--5--5-||
|-------------------|-------------------||
|
|  E  E  E  E  E  E    E  E  E  E  E  E
|-------------------|-------------------||
|-------------------|-------------------||
|-----9-10-----9-10-|-12-10-12--9-10-12-||
|-12-------12-------|-------------------||
|-------------------|-------------------||
|-------------------|-------------------||


  Q=121
 4/4
   |--3--|  |--3--|  |--3--|  |--3--|    |--3--|  |--3--|  |--3--|  |--3--|
   E  E  E  E  E  E  E  E  E  E  E  E    E  E  E  E  E  E  E  E  E  E  E  E
|-------------------------------------|-10----10-------10-12-10-12-13-12-13-|
|----------------------------10-11-13-|----13----11-13----------------------|
|-10--9-10-----9-10-12-10-12----------|-------------------------------------|
|----------12-------------------------|-------------------------------------|
|-------------------------------------|-------------------------------------|
|-------------------------------------|-------------------------------------|
|
|  W                                     W
|-------------------------------------|-------------------------------------|
|-------------------------------------|-------------------------------------|
|-------------------------------------|-------------------------------------|
|--3----------------------------------|--5----------------------------------|
|--1----------------------------------|--3----------------------------------|
|-------------------------------------|-------------------------------------|
|
|  |--3--|  |--3--|  |--3--|  |--3--|    |--3--|  |--3--|  |--3--|  |--3--|
|  E  E  E  E  E  E  E  E  E  E  E  E    E  E  E  E  E  E  E  E  E  E  E  E
|-------------------------------------|----------------------------10----10-|
|----------------------------------10-|-11-10-11----10-11-13-11-13----13----|
|--------------------9-----9-10-12----|----------12-------------------------|
|-12-10-12----10-12----12-------------|-------------------------------------|
|----------13-------------------------|-------------------------------------|
|-------------------------------------|-------------------------------------|


   |----3----|    |--3--|  |----3----|    |--3--|
   E    E    E    E  E  E  E    E    E    E  E  E
|-17----------------------17-----------------------|
|------20---18---17-18-20------20---18---17-18-20--|
|--------------------------------------------------|
|--------------------------------------------------|
|--------------------------------------------------|
|--------------------------------------------------|
|
|  PM----------|           PM----------|
|  |-----6-----|           |-----6-----|
|  S S  S S  S S  Q        S S  S S  S S  Q
|--------------------------------------------------|
|--------------------------------------------------|
|--------------------------------------------------|
|-----------------7-----------------------7--------|
|--5-5--5-5--5-5--5--------5-5--5-5--5-5--5--------|
|--------------------------------------------------|
|
|  |----3----|    |--3--|  |----3----|    |--3--|
|  E    E    E    E  E  E  E    E    E    E  E  E
|--------------------------------------------------|
|-18---17--------------17-18---17--------------17--|
|-----------19---17-19--------------19---17-19-----|
|--------------------------------------------------|
|--------------------------------------------------|
|--------------------------------------------------|


   |----3----|    |--3--|  |----3----|    |--3--|
   E    E    E    E  E  E  E    E    E    E  E  E
|-17----------------------17----------------------|
|------20---18---17-18-20------20---18---17-18-20-|
|-------------------------------------------------|
|-------------------------------------------------|
|-------------------------------------------------|
|-------------------------------------------------|
|
|  PM----------|           PM----------|
|  |-----6-----|           |-----6-----|
|  S S  S S  S S  Q        S S  S S  S S  Q
|-------------------------------------------------|
|-------------------------------------------------|
|-------------------------------------------------|
|-----------------7-----------------------7-------|
|--5-5--5-5--5-5--5--------5-5--5-5--5-5--5-------|
|-------------------------------------------------|
|
|  |----3----|    |--3--|  |----3----|    |--3--|
|  E    E    E    E  E  E  E    E    E    E  E  E
|-------------------------------------------------|
|-18---17--------------17-18---17--------------17-|
|-----------19---17-19--------------19---17-19----|
|-------------------------------------------------|
|-------------------------------------------------|
|-------------------------------------------------|


   |--3--|  |--3--|  |--3--|  |--3--|    |--3--|  |--3--|  |--3--|  |--3--|
   E  E  E  E  E  E  E  E  E  E  E  E    E  E  E  E  E  E  E  E  E  E  E  E
|-------------------------------------|-17----17-18-17-18-20-18-20-22-20-22-||
|----------17----17-18-17-18-20-18-20-|----20-------------------------------||
|-19-17-19----19----------------------|-------------------------------------||
|-------------------------------------|-------------------------------------||
|-------------------------------------|-------------------------------------||
|-------------------------------------|-------------------------------------||
|
|  W                                     W
|-------------------------------------|-------------------------------------||
|-------------------------------------|-------------------------------------||
|-------------------------------------|-------------------------------------||
|--3----------------------------------|--5----------------------------------||
|--1----------------------------------|--3----------------------------------||
|-------------------------------------|-------------------------------------||
|
|  |--3--|  |--3--|  |--3--|  |--3--|    |--3--|  |--3--|  |--3--|  |--3--|
|  E  E  E  E  E  E  E  E  E  E  E  E    E  E  E  E  E  E  E  E  E  E  E  E
|-------------------------------------|-------------------------------------||
|-------------------------------------|-------------------10----10-11-10-11-||
|-----------------------------9-----9-|-10--9-10-12-10-12----12-------------||
|----------10----10-12-10-12----12----|-------------------------------------||
|-13-12-13----13----------------------|-------------------------------------||
|-------------------------------------|-------------------------------------||


  Q=176
   W                            +W
|-24-------------------------|-(24)-------------------------|
|----------------------------|------------------------------|
|----------------------------|------------------------------|
|----------------------------|------------------------------|
|----------------------------|------------------------------|
|----------------------------|------------------------------|
|
|  PM----|   PM----|   PM|       PM-----|   PM----|   PM|
|  S S S S E S S S S E S S E     S  S S S E S S S S E S S E
|----------------------------|------------------------------|
|----------------------------|------------------------------|
|----------5---------5-----7-|------------5---------5-----7-|
|--0-0-0-0-3-0-0-0-0-3-0-0-5-|---0--0-0-0-3-0-0-0-0-3-0-0-5-|
|----------------------------|------------------------------|
|----------------------------|------------------------------|
|
|  W                            +W
|----------------------------|------------------------------|
|-13-------------------------|-(13)-------------------------|
|----------------------------|------------------------------|
|----------------------------|------------------------------|
|----------------------------|------------------------------|
|----------------------------|------------------------------|


  W                           W
|---------------------------|------------------------------|
|---------------------------|------------------------------|
|---------------------------|------------------------------|
|---------------------------|------------------------------|
|---------------------------|------------------------------|
|---------------------------|------------------------------|
|
| PM----|   PM----|   PM|     PM----|   PM----|   PM|
| S S S S E S S S S E S S E   S S S S E S S S S E S S E
|---------------------------|------------------------------|
|---------------------------|------------------------------|
|---------5---------5-----7-|---------5---------5-----7----|
|-0-0-0-0-3-0-0-0-0-3-0-0-5-|-0-0-0-0-3-0-0-0-0-3-0-0-5----|
|---------------------------|------------------------------|
|---------------------------|------------------------------|
|
| W                           W
|---------------------------|------------------------------|
|---------------------------|------------------------------|
|---------------------------|------------------------------|
|---------------------------|------------------------------|
|---------------------------|------------------------------|
|---------------------------|------------------------------|


  Gtr IV
  PM----|   PM----|   PM|     PM----|   PM----|   PM|
  S S S S E S S S S E S S E   S S S S E S S S S E S S E
|---------------------------|---------------------------|
|---------------------------|---------------------------|
|---------5---------5-----7-|---------5---------5-----7-|
|-0-0-0-0-3-0-0-0-0-3-0-0-5-|-0-0-0-0-3-0-0-0-0-3-0-0-5-|
|---------------------------|---------------------------|
|---------------------------|---------------------------|


  PM----|   PM----|   PM|     PM----|   PM----|   PM|
  S S S S E S S S S E S S E   S S S S E S S S S E S S E
|---------------------------|------------------------------||
|---------------------------|------------------------------||
|---------5---------5-----7-|---------5---------5-----7----||
|-0-0-0-0-3-0-0-0-0-3-0-0-5-|-0-0-0-0-3-0-0-0-0-3-0-0-5----||
|---------------------------|------------------------------||
|---------------------------|------------------------------||


  Gtr III
   E  E  E  E  H       +H      E  E  E  E    W           +H      H
|-------------10----|-(10)----------------|-10--------|-(10)----10b11----|
|-11-10-11-13-------|---------11-10-11-13-|-----------|------------------|
|-------------------|---------------------|-----------|------------------|
|-------------------|---------------------|-----------|------------------|
|-------------------|---------------------|-----------|------------------|
|-------------------|---------------------|-----------|------------------|
|
| Gtr IV
|  W                   +W                    W           +H      H
|-------------------|---------------------|-----------|------------------|
|-------------------|---------------------|-----------|------------------|
|-------------------|---------------------|-----------|------------------|
|--8----------------|--(8)----------------|--8--------|--(8)-----8-------|
|--6----------------|--(6)----------------|--6--------|--(6)-----6-------|
|-------------------|---------------------|-----------|------------------|
|
| Gtr V
|  E  E  E  E  H       +H      E  E  E  E    W           +H      H
|-------------------|---------------------|-----------|------------------|
|----------10-11----|-(11)-------------10-|-11--------|-(11)----10b11----|
|-12-10-12----------|---------12-10-12----|-----------|------------------|
|-------------------|---------------------|-----------|------------------|
|-------------------|---------------------|-----------|------------------|
|-------------------|---------------------|-----------|------------------|


   W                                  +W
|-10-------------------------------|-(10)-------------------------------|
|----------------------------------|------------------------------------|
|----------------------------------|------------------------------------|
|----------------------------------|------------------------------------|
|----------------------------------|------------------------------------|
|----------------------------------|------------------------------------|
|
|  PM--------------------------------------------------------------------
|  S S S S S S S S S S S S S S S S     S  S S S S S S S S S S S S S S S
|----------------------------------|------------------------------------|
|----------------------------------|------------------------------------|
|----------------------------------|------------------------------------|
|--7-7-7-7-7-7-7-7-7-7-7-7-7-7-7-7-|---7--7-7-7-7-7-7-7-7-7-7-7-7-7-7-7-|
|--5-5-5-5-5-5-5-5-5-5-5-5-5-5-5-5-|---5--5-5-5-5-5-5-5-5-5-5-5-5-5-5-5-|
|----------------------------------|------------------------------------|
|
|  W                                  +W
|----------------------------------|------------------------------------|
|-10-------------------------------|-(10)-------------------------------|
|----------------------------------|------------------------------------|
|----------------------------------|------------------------------------|
|----------------------------------|------------------------------------|
|----------------------------------|------------------------------------|


   +W                                   +W
|-(10)-------------------------------|-(10)----------------------------------|
|------------------------------------|---------------------------------------|
|------------------------------------|---------------------------------------|
|------------------------------------|---------------------------------------|
|------------------------------------|---------------------------------------|
|------------------------------------|---------------------------------------|
|
|-----------------------------------------------------------------------|
|   S  S S S S S S S S S S S S S S S     S  S S S S S S S S S S S S S S S
|------------------------------------|---------------------------------------|
|------------------------------------|---------------------------------------|
|------------------------------------|---------------------------------------|
|---7--7-7-7-7-7-7-7-7-7-7-7-7-7-7-7-|---7--7-7-7-7-7-7-7-7-7-7-7-7-7-7-7----|
|---5--5-5-5-5-5-5-5-5-5-5-5-5-5-5-5-|---5--5-5-5-5-5-5-5-5-5-5-5-5-5-5-5----|
|------------------------------------|---------------------------------------|
|
|  +W                                   +W
|------------------------------------|---------------------------------------|
|-(10)-------------------------------|-(10)----------------------------------|
|------------------------------------|---------------------------------------|
|------------------------------------|---------------------------------------|
|------------------------------------|---------------------------------------|
|------------------------------------|---------------------------------------|


   E  E  E  E  H       +E   E  E  E  E  E  E  E
|-------------10----|-(10)-------------------10-|
|-11-10-11-13-------|------------10-11-10-11----|
|-------------------|---------12----------------|
|-------------------|------12-------------------|
|-------------------|---------------------------|
|-------------------|---------------------------|
|
|  W                   +W
|-------------------|---------------------------|
|-------------------|---------------------------|
|-------------------|---------------------------|
|--8----------------|--(8)----------------------|
|--6----------------|--(6)----------------------|
|-------------------|---------------------------|
|
|  E  E  E  E  H       +E   E  E  E  E  E  E  E
|-------------------|---------------------------|
|----------10-11----|-(11)-------------------11-|
|-12-10-12----------|------------10-12-10-12----|
|-------------------|---------13----------------|
|-------------------|------13-------------------|
|-------------------|---------------------------|


   E  E  E  E  H          +W
|----------------------|---------|
|-13-11-10-11-11b13----|-(11)----|
|----------------------|---------|
|----------------------|---------|
|----------------------|---------|
|----------------------|---------|
|
|  W                      +W
|----------------------|---------|
|----------------------|---------|
|----------------------|---------|
|--7-------------------|--(7)----|
|--5-------------------|--(5)----|
|----------------------|---------|
|
|  E  E  E  E  H          +W
|----------------------|---------|
|-10-------------------|---------|
|----12-11-12-12b14----|-(12)----|
|----------------------|---------|
|----------------------|---------|
|----------------------|---------|


   E  E  E  E  H       +E   E  E  E  E  E  E  E
|-------------10----|-(10)-------------------10-|
|-11-10-11-13-------|------------10-11-10-11----|
|-------------------|---------12----------------|
|-------------------|------12-------------------|
|-------------------|---------------------------|
|-------------------|---------------------------|
|
|  W                   +W
|-------------------|---------------------------|
|-------------------|---------------------------|
|-------------------|---------------------------|
|--8----------------|--(8)----------------------|
|--6----------------|--(6)----------------------|
|-------------------|---------------------------|
|
|  E  E  E  E  H       +E   E  E  E  E  E  E  E
|-------------------|---------------------------|
|----------10-11----|-(11)-------------------11-|
|-12-10-12----------|------------10-12-10-12----|
|-------------------|---------13----------------|
|-------------------|------13-------------------|
|-------------------|---------------------------|


   E  E  E  E  E  E  E  E    E  E  E  E  E  E  E  E
|-11-10----10-11-10-11-13-|-14----14-17-18-17-18-20--|
|-------13----------------|----15--------------------|
|-------------------------|--------------------------|
|-------------------------|--------------------------|
|-------------------------|--------------------------|
|-------------------------|--------------------------|
|
|  W                         W
|-------------------------|--------------------------|
|-------------------------|--------------------------|
|-------------------------|--------------------------|
|-10----------------------|-12-----------------------|
|--8----------------------|--9-----------------------|
|-------------------------|--------------------------|
|
|  E  E  E  E  E  E  E  E    E  E  E  E  E  E  E  E
|----------------------10-|----------14-15-14-15-17--|
|-13-11-10-11-13-11-13----|-15----15-----------------|
|-------------------------|----14--------------------|
|-------------------------|--------------------------|
|-------------------------|--------------------------|
|-------------------------|--------------------------|


   W               +W               W              W
|-22------------|-(22)------------|--------------|---------------|
|---------------|-----------------|--------------|---------------|
|---------------|-----------------|--------------|---------------|
|---------------|-----------------|--------------|---------------|
|---------------|-----------------|--------------|---------------|
|---------------|-----------------|--------------|---------------|
|
|  Q  E Q.   Q      Q   E Q.   Q    Q  E Q.   Q    Q  E Q.   Q
|---------------|-----------------|--------------|---------------|
|---------------|-----------------|--------------|---------------|
|---------------|-----------------|--------------|---------------|
|---------------|-----------------|--------------|---------------|
|--5----5-------|---5-----5-------|-5----5-------|-5----5--------|
|--3----3-------|---3-----3-------|-3----3-------|-3----3--------|
|
|  W               +W               W              W
|-18------------|-(18)------------|--------------|---------------|
|---------------|-----------------|--------------|---------------|
|---------------|-----------------|--------------|---------------|
|---------------|-----------------|--------------|---------------|
|---------------|-----------------|--------------|---------------|
|---------------|-----------------|--------------|---------------|


   Q.       Q      Q    E    Q.       Q      Q    E
|-15-------13-----15---16-|-15-------13-----15---16-|
|-18b20----16b18----------|-18b20----16b18----------|
|-------------------------|-------------------------|
|-------------------------|-------------------------|
|-------------------------|-------------------------|
|-------------------------|-------------------------|
|
|  Q     E  Q.       Q       Q     E  Q.       Q
|-------------------------|-------------------------|
|-------------------------|-------------------------|
|-------------------------|-------------------------|
|-------------------------|-------------------------|
|--5--------5-------------|--5--------5-------------|
|--3--------3-------------|--3--------3-------------|


   Q.       Q      Q    E    Q.       Q      Q    E
|-15-------13-----15---16-|-15-------13-----15---16--||
|-18b20----16b18----------|-18b20----16b18-----------||
|-------------------------|--------------------------||
|-------------------------|--------------------------||
|-------------------------|--------------------------||
|-------------------------|--------------------------||
|
|  Q     E  Q.       Q       Q     E  Q.       Q
|-------------------------|--------------------------||
|-------------------------|--------------------------||
|-------------------------|--------------------------||
|-------------------------|--------------------------||
|--5--------5-------------|--5--------5--------------||
|--3--------3-------------|--3--------3--------------||


   E  E  E  E   E   E  E  E    E  E  E  E  E  E  E  E
|---------------------------|-------------------------|
|---------------------------|-------------------------|
|---------------------------|----------------------15-|
|-15----15-17--18--17-15----|-15----15-17-18-17-18----|
|----18------------------18-|----18-------------------|
|---------------------------|-------------------------|
|
|  W                           W
|---------------------------|-------------------------|
|---------------------------|-------------------------|
|---------------------------|-------------------------|
|---------------------------|--3----------------------|
|--6------------------------|--1----------------------|
|--4------------------------|-------------------------|
|
| Gtr V
|  H           +E   E  E  E    E  E  E  E  E  E  E  E
|---------------------------|-------------------------|
|---------------------------|-------------------------|
|---------------------------|-------------------------|
|---------------------------|-------------15----15-17-|
|-15----------(15)----15-15-|-17-15-17-18----18-------|
|------------------18-------|-------------------------|


   E  E  E  E  E  E  E  E    E  E  E  E  E  E  E  E    W
|-------------------------|-------------15----------|-------|
|-------------15----15-18-|-16-15-16-18----18-16-15-|-16----|
|-16-------16----16-------|-------------------------|-------|
|-------17----------------|-------------------------|-------|
|----17-------------------|-------------------------|-------|
|-------------------------|-------------------------|-------|
|
|  W                         W                         W
|-------------------------|-------------------------|-------|
|-------------------------|-------------------------|-------|
|-------------------------|-------------------------|-------|
|--5----------------------|--5----------------------|-------|
|--2----------------------|--3----------------------|--6----|
|-------------------------|-------------------------|--4----|
|
|  E  E  E  E  E  E  E  E    E  E  E  E  E  E  E  E    W
|-------------------------|-------------------------|-------|
|----------------------15-|----------15-16-15-------|-------|
|-------------16----16----|-17-15-17----------17-15-|-17----|
|-17-------17----17-------|-------------------------|-------|
|----14-17----------------|-------------------------|-------|
|-------------------------|-------------------------|-------|


  W          W          W          E E E E E E E E   E E E E E E E E
|----------|----------|----------|-------4-3-------|-------6-----------|
|----------|----------|----------|-4---------6-4-6-|-8-------9-8-6-9---|
|----------|----------|----------|-----5-----------|-----7-------------|
|----------|----------|----------|---6-------------|---8---------------|
|----------|----------|----------|-----------------|-------------------|
|----------|----------|----------|-----------------|-------------------|
|
| W          W          W          W                 W
|----------|----------|----------|-----------------|-------------------|
|----------|----------|----------|-----------------|-------------------|
|----------|----------|----------|-----------------|-------------------|
|-3--------|-3--------|-5--------|-----------------|-3-----------------|
|-0--------|-1--------|-2--------|-6---------------|-1-----------------|
|----------|----------|----------|-4---------------|-------------------|
|
| W          W          W          E E E E E E E E   E E E E E E E E
|----------|----------|----------|-----------------|-------------------|
|----------|----------|----------|---------4-3---3-|---------6-----6---|
|----------|----------|----------|-5-----5-----5---|-7-----7---8-7-----|
|----------|----------|----------|-----6-----------|-----8-------------|
|----------|----------|----------|---6-------------|---8---------------|
|----------|----------|----------|-----------------|-------------------|


   E  E  E  E  E  E  E  E    E  E  E  E  E  E  E  E    W          W
|----------------------13-|-------------15----------|-----------|------||
|-12-------12-15-12-15----|-16-15----15----18-16-15-|-16--------|------||
|-------12----------------|-------17----------------|-----------|------||
|----12-------------------|-------------------------|-----------|------||
|-------------------------|-------------------------|-----------|------||
|-------------------------|-------------------------|-----------|------||
|
|  W                         W                         W          W
|-------------------------|-------------------------|-----------|------||
|-------------------------|-------------------------|-----------|------||
|-------------------------|-------------------------|-----------|------||
|--5----------------------|--5----------------------|-----------|-3----||
|--2----------------------|--3----------------------|--6--------|-1----||
|-------------------------|-------------------------|--4--------|------||
|
|  E  E  E  E  E  E  E  E    E  E  E  E  E  E  E  E    W          W
|-------------------------|-------------------------|-----------|------||
|-------------12----12-15-|-------------16-15-------|-----------|------||
|-12-------12----12-------|-17----------------17-15-|-17--------|------||
|-------12----------------|----17-17----------------|-----------|------||
|----14-------------------|----------18-------------|-----------|------||
|-------------------------|-------------------------|-----------|------||


 6/4
   E  E  E    E    E  E  E    E    E  E  E    E
|-------------------------------------------------|
|-------------------------------------------------|
|-12--------------12--------------12---------12---|
|----12-13---15------12-13---15------13-15--------|
|-------------------------------------------------|
|-------------------------------------------------|
|
|  PM----------------------------------------------
|  E  E  S S  S S  E  E  S S  S S  E  E  S S  S S
|-------------------------------------------------|
|-------------------------------------------------|
|-------------------------------------------------|
|--5--5--5-5--5-5--5--5--5-5--5-5--5--5--5-5--5-5-|
|--3--3--3-3--3-3--3--3--3-3--3-3--3--3--3-3--3-3-|
|-------------------------------------------------|
|
|  E  E  E    E    E  E  E    E    E  E  E    E
|-------------------------------------------------|
|-------------------------------------------------|
|-------------------------------------------------|
|-13---------12---13---------12---13----12---13---|
|----13-15-----------13-15-----------15-----------|
|-------------------------------------------------|


   E  E  E    E    E  E  E    E    E  E  E    E
|-------------------------------------------------|
|-------------------------------------------------|
|-14--------------14---------14---15----14---15---|
|----14-15---17------15-17-----------17-----------|
|-------------------------------------------------|
|-------------------------------------------------|
|
|-----------------------------------------------|
|  E  E  S S  S S  E  E  S S  S S  E  E  S S  S S
|-------------------------------------------------|
|-------------------------------------------------|
|-------------------------------------------------|
|--7--7--7-7--7-7--7--7--7-7--7-7--8--8--8-8--8-8-|
|--5--5--5-5--5-5--5--5--5-5--5-5--6--6--6-6--6-6-|
|-------------------------------------------------|
|
|  E  E  E    E    E  E  E    E    E  E  E    E
|-------------------------------------------------|
|-------------------------------------------------|
|-------------------------------------------------|
|-15--------------15---------15---17----15---17---|
|----15-17---18------17-18-----------18-----------|
|-------------------------------------------------|


   E  E  E    E    E  E  E    E    E  E  E    E
|------------14---15-14-15---14---15-14-15---14---|
|----15-16----------------------------------------|
|-17----------------------------------------------|
|-------------------------------------------------|
|-------------------------------------------------|
|-------------------------------------------------|
|
|  PM----------------------------------------------
|  E  E  S S  S S  E  E  S S  S S  E  E  S S  S S
|-------------------------------------------------|
|-------------------------------------------------|
|-------------------------------------------------|
|--7--7--7-7--7-7--7--7--7-7--7-7--7--7--7-7--7-7-|
|--5--5--5-5--5-5--5--5--5-5--5-5--5--5--5-5--5-5-|
|-------------------------------------------------|
|
|  E  E  E    E    E  E  E    E    E  E  E    E
|-------------------------------------------------|
|------------15---16-15-16---15---16-15-16---15---|
|-14-15-17----------------------------------------|
|-------------------------------------------------|
|-------------------------------------------------|
|-------------------------------------------------|


   E  E  E    E    E  E  E    E    E  E  E    E
|-15-14-15---14---15-14-15---14---17-14-17---14----||
|--------------------------------------------------||
|--------------------------------------------------||
|--------------------------------------------------||
|--------------------------------------------------||
|--------------------------------------------------||
|
|-----------------------------------------------|
|  E  E  S S  S S  E  E  S S  S S  E  E  S S  S S
|--------------------------------------------------||
|--------------------------------------------------||
|--------------------------------------------------||
|--7--7--7-7--7-7--7--7--7-7--7-7--7--7--7-7--7-7--||
|--5--5--5-5--5-5--5--5--5-5--5-5--5--5--5-5--5-5--||
|--------------------------------------------------||
|
|  E  E  E    E    E  E  E    E    E  E  E    E
|--------------------------------------------------||
|-16-15-16---15---16-15-16---15---19-15-19---15----||
|--------------------------------------------------||
|--------------------------------------------------||
|--------------------------------------------------||
|--------------------------------------------------||


   E  E  E    E    E  E  E    E    E  E  E    E
|-10--------------10--------------10---------10---|
|----10-11---13------10-11---13------11-13--------|
|-------------------------------------------------|
|-------------------------------------------------|
|-------------------------------------------------|
|-------------------------------------------------|
|
|  PM----------------------------------------------
|  E  E  S S  S S  E  E  S S  S S  E  E  S S  S S
|-------------------------------------------------|
|-------------------------------------------------|
|-------------------------------------------------|
|-------------------------------------------------|
|--5--5--5-5--5-5--5--5--5-5--5-5--5--5--5-5--5-5-|
|--3--3--3-3--3-3--3--3--3-3--3-3--3--3--3-3--3-3-|
|
|  E  E  E    E    E  E  E    E    E  E  E    E
|-------------------------------------------------|
|-11--------------11--------------11--------------|
|----11-12---14------11-12---14------11-12---14---|
|-------------------------------------------------|
|-------------------------------------------------|
|-------------------------------------------------|


   E  E  E    E    E  E  E    E    E  E  E    E
|-12--------------12---------12---13----12---13----|
|----12-13---15------13-15-----------15------------|
|--------------------------------------------------|
|--------------------------------------------------|
|--------------------------------------------------|
|--------------------------------------------------|
|
|-----------------------------------------------|
|  E  E  S S  S S  E  E  S S  S S  E  E  S S  S S
|--------------------------------------------------|
|--------------------------------------------------|
|--------------------------------------------------|
|--------------------------------------------------|
|--7--7--7-7--7-7--7--7--7-7--7-7--8--8--8-8--8-8--|
|--5--5--5-5--5-5--5--5--5-5--5-5--6--6--6-6--6-6--|
|
|  E  E  E    E    E  E  E    E    E  E  E    E
|--------------------------------------------------|
|-13---------12---13----12---13---15-12-13---15----|
|----13-14-----------14----------------------------|
|--------------------------------------------------|
|--------------------------------------------------|
|--------------------------------------------------|


   E  E  E    E    E  E  E    E    E  E  E    E
|------------21---22-21-22---21---22-21-22---21---|
|-20-22-23----------------------------------------|
|-------------------------------------------------|
|-------------------------------------------------|
|-------------------------------------------------|
|-------------------------------------------------|
|
|  PM----------------------------------------------
|  E  E  S S  S S  E  E  S S  S S  E  E  S S  S S
|-------------------------------------------------|
|-------------------------------------------------|
|-------------------------------------------------|
|-------------------------------------------------|
|--7--7--7-7--7-7--7--7--7-7--7-7--7--7--7-7--7-7-|
|--5--5--5-5--5-5--5--5--5-5--5-5--5--5--5-5--5-5-|
|
|  E  E  E    E    E  E  E    E    E  E  E    E
|-------------------------------------------------|
|-------20---22---23-22-23---22---23-22-23---22---|
|-21-22-------------------------------------------|
|-------------------------------------------------|
|-------------------------------------------------|
|-------------------------------------------------|


   E  E  E    E    E  E  E    E    E  E  E    E
|-22-21-22---21---22-21-22---21---24-21-24---21----||
|--------------------------------------------------||
|--------------------------------------------------||
|--------------------------------------------------||
|--------------------------------------------------||
|--------------------------------------------------||
|
|-----------------------------------------------|
|  E  E  S S  S S  E  E  S S  S S  E  E  S S  S S
|--------------------------------------------------||
|--------------------------------------------------||
|--------------------------------------------------||
|--------------------------------------------------||
|--7--7--7-7--7-7--7--7--7-7--7-7--7--7--7-7--7-7--||
|--5--5--5-5--5-5--5--5--5-5--5-5--5--5--5-5--5-5--||
|
|  E  E  E    E    E  E  E    E    E  E  E    E
|---------------------------------21----21---------||
|-23-22-23---22---23-22-23---22------22------22----||
|--------------------------------------------------||
|--------------------------------------------------||
|--------------------------------------------------||
|--------------------------------------------------||


   E  E  E    E    E  E  E    E    E  E  E    E
|-------------------------------------------------|
|-------------------------------------------------|
|---------------------------------10---------10---|
|-----------------12---------12---------12--------|
|-12---------12---------12-----------12-----------|
|----10-13-----------13---------------------------|
|
|  PM----------------------------------------------
|  E  E  S S  S S  E  E  S S  S S  E  E  S S  S S
|-------------------------------------------------|
|-------------------------------------------------|
|-------------------------------------------------|
|--7--7--7-7--7-7--7--7--7-7--7-7--7--7--7-7--7-7-|
|--5--5--5-5--5-5--5--5--5-5--5-5--5--5--5-5--5-5-|
|-------------------------------------------------|
|
|  E  E  E    E    E  E  E    E    E  E  E    E
|-------------------------------------------------|
|-------------------------------------------------|
|----------------------------------7----------7---|
|------------------7----------7----------7--------|
|--8-----5----8-------5--8------------8-----------|
|-----5-------------------------------------------|


   E  E  E    E    E  E  E    E    E  E  E    E
|---------------------------------11---------11-----|
|-----------------11---------11---------11----------|
|-12---------12---------12-----------12-------------|
|-------13-----------13-----------------------------|
|----13---------------------------------------------|
|---------------------------------------------------|
|
|-----------------------------------------------|
|  E  E  S S  S S  E  E  S S  S S  E  E  S S  S S
|---------------------------------------------------|
|---------------------------------------------------|
|---------------------------------------------------|
|--8--8--8-8--8-8--8--8--8-8--8-8--8--8--8-8--8-8---|
|--6--6--6-6--6-6--6--6--6-6--6-6--6--6--6-6--6-6---|
|---------------------------------------------------|
|
|  E  E  E    E    E  E  E    E    E  E  E    E
|---------------------------------------------------|
|------------------8----------8---11-----8---11-----|
|--8----------8----------8------------8-------------|
|--------8------------8-----------------------------|
|----10---------------------------------------------|
|---------------------------------------------------|


   E  E  E    E    E  E  E    E    E  E  E    E
|-------------------------------------------------|
|-------------------------------------------------|
|---------------------------------12---------12---|
|-----------------14---------14---------14--------|
|-15---------15---------15-----------15-----------|
|----12-15-----------15---------------------------|
|
|  PM----------------------------------------------
|  E  E  S S  S S  E  E  S S  S S  E  E  S S  S S
|-------------------------------------------------|
|-------------------------------------------------|
|-------------------------------------------------|
|-------------------------------------------------|
|--3--3--3-3--3-3--3--3--3-3--3-3--3--3--3-3--3-3-|
|--0--0--0-0--0-0--0--0--0-0--0-0--0--0--0-0--0-0-|
|
|  E  E  E    E    E  E  E    E    E  E  E    E
|-------------------------------------------------|
|-------------------------------------------------|
|----------------------------------9----------9---|
|-----------------10---------10---------10--------|
|-10-----7---10-------7-10-----------10-----------|
|-----8-------------------------------------------|


   E  E  E    E    E  E  E    E    E  E  E    E
|---------------------------------13---------13-----|
|-----------------12---------13---------13----------|
|-14---------14---------14-----------14-------------|
|-------15-----------15-----------------------------|
|----15---------------------------------------------|
|---------------------------------------------------|
|
|-----------------------------------------------|
|  E  E  S S  S S  E  E  S S  S S  E  E  S S  S S
|---------------------------------------------------|
|---------------------------------------------------|
|---------------------------------------------------|
|---------------------------------------------------|
|--3--3--3-3--3-3--3--3--3-3--3-3--3--3--3-3--3-3---|
|--1--1--1-1--1-1--1--1--1-1--1-1--1--1--1-1--1-1---|
|
|  E  E  E    E    E  E  E    E    E  E  E    E
|---------------------------------------------------|
|-----------------10---------10---13----10---13-----|
|-10---------10---------10-----------10-------------|
|-------10-----------10-----------------------------|
|----12---------------------------------------------|
|---------------------------------------------------|


   E  E  E    E    E  E  E    E    E  E  E    E      E  E  E    E    E  E  E    E    E  E  E    E
|-------------------------------------------------|---------------------------------15---------15---|
|-------------------------------------------------|-----------------15---------15---------15--------|
|---------------------------------14---------14---|-15---------15---------15-----------15-----------|
|-----------------16---------16---------16--------|-------17-----------17---------------------------|
|-17---------17---------17-----------17-----------|----17-------------------------------------------|
|----14-17-----------17---------------------------|-------------------------------------------------|
|
|  PM------------------------------------------------------------------------------------------------
|  E  E  S S  S S  E  E  S S  S S  E  E  S S  S S    E  E  S S  S S  E  E  S S  S S  E  E  S S  S S
|-------------------------------------------------|-------------------------------------------------|
|-------------------------------------------------|-------------------------------------------------|
|-------------------------------------------------|-------------------------------------------------|
|-------------------------------------------------|-------------------------------------------------|
|--5--5--5-5--5-5--5--5--5-5--5-5--5--5--5-5--5-5-|--5--5--5-5--5-5--5--5--5-5--5-5--5--5--5-5--5-5-|
|--2--2--2-2--2-2--2--2--2-2--2-2--2--2--2-2--2-2-|--3--3--3-3--3-3--3--3--3-3--3-3--3--3--3-3--3-3-|
|
|  E  E  E    E    E  E  E    E    E  E  E    E      E  E  E    E    E  E  E    E    E  E  E    E
|-------------------------------------------------|---------------------------------10---------10---|
|-------------------------------------------------|-----------------11---------11---------11--------|
|---------------------------------11---------11---|-12---------12---------12-----------12-----------|
|-----------------12---------12---------12--------|-------12-----------12---------------------------|
|-12-----9---12-------9-12-----------12-----------|----13-------------------------------------------|
|----10-------------------------------------------|-------------------------------------------------|


   E  E  E    E    E  E  E    E    E  E  E    E
|----------------------------------------------------|
|----------------------------------------------------|
|---------------------------------------15---17------|
|--------------------15-17---15---17-18--------------|
|-15----15---17---18---------------------------------|
|----18----------------------------------------------|
|
|-----------------------------------------------|
|  E  E  S S  S S  E  E  S S  S S  E  E  S S  S S
|----------------------------------------------------|
|----------------------------------------------------|
|----------------------------------------------------|
|----------------------------------------------------|
|--6--6--6-6--6-6--6--6--6-6--6-6--6--6--6-6--6-6----|
|--4--4--4-4--4-4--4--4--4-4--4-4--4--4--4-4--4-4----|
|
|  E  E  E    E    E  E  E    E    E  E  E    E
|----------------------------------------------------|
|----------------------------------------------------|
|----------------------------------------------------|
|------------------------------------15-17---18------|
|-----------------15-17-18---17---18-----------------|
|-16-15-16---18--------------------------------------|


   E  E  E    E    E  E  E    E    E  E  E    E
|--------------------15-16---15---15-18-20---22---|
|-15----15---16---18------------------------------|
|----17-------------------------------------------|
|-------------------------------------------------|
|-------------------------------------------------|
|-------------------------------------------------|
|
|  PM-------------------------------------------|
|  E  E  S S  S S  E  E  S S  S S  E  E  S S  S S
|-------------------------------------------------|
|-------------------------------------------------|
|-------------------------------------------------|
|-------------------------------------------------|
|--8--8--8-8--8-8--8--8--8-8--8-8--8--8--8-8--8-8-|
|--6--6--6-6--6-6--6--6--6-6--6-6--6--6--6-6--6-6-|
|
|  E  E  E    E    E  E  E    E    E  E  E    E
|------------------------------------15-16---18---|
|-----------------15-16-18---16---18--------------|
|-15----15---17-----------------------------------|
|----18-------------------------------------------|
|-------------------------------------------------|
|-------------------------------------------------|


 4/4
   E  E  E  E  E  E  E  E    E  E  E  E  E  E  Q
|-------------------------|------------------------||
|-------------------------|-------15-16-18-16-18---||
|-------------15----15-17-|-15-17------------------||
|----15-17-18----18-------|------------------------||
|-18----------------------|------------------------||
|-------------------------|------------------------||
|
|  W                         W
|-------------------------|------------------------||
|-------------------------|------------------------||
|-------------------------|------------------------||
|-------------------------|------------------------||
|--6----------------------|--8---------------------||
|--4----------------------|--6---------------------||
|
|  E  E  E  E  E  E  E  E    E  E  E  E  E  E  Q
|-------------------------|------------------------||
|-------------------------|-------------15----15---||
|-------------------------|-------15-17----17------||
|----------15-17-15-17-18-|-17-18------------------||
|-15-17-18----------------|------------------------||
|-------------------------|------------------------||


 Glimpse of Hope (12:42)
  Q=82
   H    H      W           W          W          W
|------------|-----------|----------|----------|-----------|
|-17---------|-----------|----------|----------|-----------|
|------------|-----------|----------|----------|-----------|
|------------|-----------|----------|----------|-----------|
|------------|-----------|----------|----------|-----------|
|------------|-----------|----------|----------|-----------|
|
|  H    H      H    H      W          W          H    H
|------------|-----------|----------|----------|-----------|
|------------|-----------|----------|----------|-----------|
|------------|-----------|----------|----------|-----------|
|--5----5----|-2---------|----------|----------|-5----5----|
|--3----2----|-0----2----|-3--------|-5--------|-3----2----|
|------------|------0----|-1--------|-3--------|-----------|
|
|  H    H      W           W          W          W
|------------|-----------|----------|----------|-----------|
|------------|-----------|----------|----------|-----------|
|-17---------|-----------|----------|----------|-----------|
|------------|-----------|----------|----------|-----------|
|------------|-----------|----------|----------|-----------|
|------------|-----------|----------|----------|-----------|


  W           W          H     Q   E.  T  T
|-----------|----------|-----------------------||
|-----------|----------|------16--15-----------||
|-----------|----------|--------------17-15----||
|-----------|----------|-----------------------||
|-----------|----------|-----------------------||
|-----------|----------|-----------------------||
|
| H    H      W          W
|-----------|----------|-----------------------||
|-----------|----------|-----------------------||
|-----------|----------|-----------------------||
|-2---------|----------|-----------------------||
|-0----2----|-3--------|-5---------------------||
|------0----|-1--------|-3---------------------||
|
| W           W          W
|-----------|----------|-----------------------||
|-----------|----------|-----------------------||
|-----------|----------|-----------------------||
|-----------|----------|-----------------------||
|-----------|----------|-----------------------||
|-----------|----------|-----------------------||


   Q.    E  Q   +S   E  S    W                         W
|-------------------------|-------------------------|----------------------||
|-------------------------|-------------------------|----------------------||
|-17----17-15--(15)-------|-------------------------|----------------------||
|-------------------15-18-|-17----------------------|----------------------||
|-------------------------|-------------------------|----------------------||
|-------------------------|-------------------------|----------------------||
|
|  H        H                H           H             H        H
|-------------------------|-------------------------|----------------------||
|-------------------------|-------------------------|----------------------||
|-------------------------|-------------------------|----------------------||
|-------------------------|--8----------------------|----------------------||
|--6--------8-------------|--6-----------5----------|--6--------8----------||
|--4--------6-------------|--------------3----------|--4--------6----------||
|
|  W                         E  E  E  E  E  E  E  E    Q.    E  E.  E.  E
|-------------------------|-------------------------|----------------------||
|-------------------------|-------------------------|----------15--16--15--||
|-------------------------|-------------------------|-17----17-------------||
|-------------------------|----------15-17-15-17-18-|----------------------||
|-------------------------|-18-17-18----------------|----------------------||
|-------------------------|-------------------------|----------------------||


                           Hope (13:39)
  Gtr IV
   W          Wx7           Wx8          W           W
|-----------|------------||------------|----------|--------||
|-----------|------------||------------|----------|--------||
|-----------|------------||------------|----------|--------||
|--8--------|------------||------------|----------|--------||
|--6--------|------------||------------|----------|--------||
|-----------|------------||------------|----------|--------||
|
| Gtr V
|  W          Wx7           Wx8          W          +W
|-----------|------------||------------|----------|--------||
|-16--------|------------||------------|----------|--------||
|-----------|------------||------------|----------|--------||
|-----------|------------||------------|----------|--------||
|-----------|------------||------------|-2--------|-(2)----||
|-----------|------------||------------|-0--------|-(0)----||


  Gtrs III, IV
  Q  S S S S Q  S S S S   H    Q  E E   Q  S S S S H      H    H
|-----------------------|-------------|-----------------|-----------|
|-----------------------|-------------|-----------------|-----------|
|-----------------------|-------------|-----------------|-----------|
|-2---------------------|------5------|-----------------|-5----9----|
|-0--0-------3----------|-5----3--2---|-3----------5----|-3----7----|
|------3-1-0-1--1-0-1-2-|-3---------3-|-1--1-0-1-2-3----|-----------|


  Q  S S S S H      H    H      W          H    H
|-----------------|-----------|----------|-----------||
|-----------------|-----------|----------|-----------||
|-----------------|-----------|----------|-----------||
|-----------------|-----------|----------|-----------||
|-3----------5----|-7----7----|-3--------|-5----7----||
|-1--1-0-1-2-3----|-4----5----|-1--------|-3----4----||


  Q  S S S S Q  S S S S   H    Q  E E   Q  S S S S H      Q  +S  E S H
|-----------------------|-------------|-----------------|-----------------|
|-----------------------|-------------|-----------------|-----------------|
|-----------------------|-------------|-----------------|-----------------|
|-2---------------------|------5------|-----------------|-5--(5)----------|
|-0--0-------3----------|-5----3--2---|-3----------5----|-3--(3)-3-2-1----|
|------3-1-0-1--1-0-1-2-|-3---------3-|-1--1-0-1-2-3----|-----------------|


  H    Q  Q    H    H      W
|------------|-----------|----------|
|------------|-----------|----------|
|------------|-----------|----------|
|-3----------|------2----|----------|
|-0----5--3--|-2----0----|-3--------|
|------3--1--|-0---------|-1--------|


                                      1/4
  H    H      W          +H     H      W
|-----------|----------|-------------|-----||
|-----------|----------|-------------|-----||
|-----------|----------|-------------|-----||
|-----------|----------|-------------|-----||
|-5----7----|-7--------|-(7)---------|-----||
|-3----4----|-5--------|-(5)---------|-----||


 Internal Conflict (15:07)
 4/4
  Gtr I
   E  E  E E  E S  S  +Q           E  E  E E  E S  S  +Q
|-12--5-13-5-15-5-13-(13)-----0-|-12--5-13-5-15-5-13-(13)-------|
|-13----13---13---13-(13)---1---|-13----13---13---13-(13)---1---|
|--2------------------(2)-2-----|--9------------------(9)-2---2-|
|-------------------------------|-------------------------------|
|-------------------------------|-------------------------------|
|-------------------------------|-------------------------------|
   H.                 +S  S S S    H.                 +S  S S S


   E  E  E E  E S  S  +Q           E  E  E E  E S  S  +Q
|-12--5-13-5-15-5-13-(13)-------|-12--5-13-5-15-5-13-(13)---------|
|-13----13---13---13-(13)-----1-|-13----13---13---13-(13)-----1---|
|---------------------------2---|--9------------------(9)---2-----|
|--3------------------(3)-3-----|-------------------------3-------|
|-------------------------------|---------------------------------|
|-------------------------------|---------------------------------|
   H.                 +S  S S S    H.                 +S  S S S


   E  E  E E  E S  S  +Q           E  E  E E  E S  S  +Q
|-12--5-13-5-15-5-13-(13)-----0-|-12--5-13-5-15-5-13-(13)-------|
|-13----13---13---13-(13)---1---|-13----13---13---13-(13)---1---|
|--2------------------(2)-2-----|--9------------------(9)-2---2-|
|-------------------------------|-------------------------------|
|-------------------------------|-------------------------------|
|-------------------------------|-------------------------------|
   H.                 +S  S S S    H.                 +S  S S S


   E  E  E E  E S  S  +Q           E  E  E E  E S  S  +Q
|-12--5-13-5-15-5-13-(13)-------|-12--5-13-5-15-5-13-(13)-------|
|-13----13---13---13-(13)-----1-|-13----13---13---13-(13)-----1-|
|---------------------------2---|-10-----------------(10)---2---|
|--3------------------(3)-3-----|-------------------------3-----|
|-------------------------------|-------------------------------|
|-------------------------------|-------------------------------|
   H.                 +S  S S S    H.                 +S  S S S


   E  E  E E  E S  S  +Q           E  E  E E  E S  S  +Q
|-12--5-13-5-15-5-13-(13)-----0-|-12--5-13-5-15-5-13-(13)-------|
|-13----13---13---13-(13)---1---|-13----13---13---13-(13)---1---|
|--2------------------(2)-2-----|--9------------------(9)-2---2-|
|-------------------------------|-------------------------------|
|-------------------------------|-------------------------------|
|-------------------------------|-------------------------------|
   H.                 +S  S S S    H.                 +S  S S S


   E  E  E E  E S  S  +Q           E  E  E E  E S  S  +Q
|-12--5-13-5-15-5-17-(17)-------|-12--5-13-5-15-5-17-(17)-------|
|-13----13---13---18-(18)-----1-|-13----13---13---18-(18)-----1-|
|---------------------------2---|--9------------------(9)---2---|
|--3------------------(3)-3-----|-------------------------3-----|
|-------------------------------|-------------------------------|
|-------------------------------|-------------------------------|
   H.                 +S  S S S    H.                 +S  S S S


  E E E E E S S +Q     E E E E E S S +Q
|-0---1---3---1-(1)--|-0---1---3---1-(1)--|
|-1---1---1---1-(1)--|-1---1---1---1-(1)--|
|---2---2---2--------|---2---2---2--------|
|--------------------|--------------------|
|--------------------|--------------------|
|--------------------|--------------------|


  E E E E E S S +Q     E E E E E S S +Q
|-0---1---3---1-(1)--|-0---1---3---5-(5)--|
|-1---1---1---1-(1)--|-1---1---1---6-(6)--|
|---2---2---2--------|---2---2---2--------|
|--------------------|--------------------|
|--------------------|--------------------|
|--------------------|--------------------|


   E E  E E  E S  S  +Q      E E  E E  E S  S  +Q
|-12-5-13-5-15-5-13-(13)--|-12-5-13-5-15-5-13-(13)--|
|-13---13---13---13-(13)--|-13---13---13---13-(13)--|
|-------------------------|-------------------------|
|-------------------------|-------------------------|
|-------------------------|-------------------------|
|-------------------------|-------------------------|


   E E  E E  E S  S  +Q      E E  E E  E S  S  +Q
|-12-5-13-5-15-5-13-(13)--|-12-5-13-5-15-5-13-(13)--|
|-13---13---13---13-(13)--|-13---13---13---13-(13)--|
|-------------------------|-------------------------|
|-------------------------|-------------------------|
|-------------------------|-------------------------|
|-------------------------|-------------------------|


  E E E E E S S +Q     E E E E E S S +Q
|-0---1---3---1-(1)--|-0---1---3---1-(1)--|
|-1---1---1---1-(1)--|-1---1---1---1-(1)--|
|---2---2---2--------|---2---2---2--------|
|--------------------|--------------------|
|--------------------|--------------------|
|--------------------|--------------------|


  E E E E E S S +Q     E E E E E S S +Q
|-0---1---3---5-(5)--|-0---1---3---5-(5)--|
|-1---1---1---6-(6)--|-1---1---1---6-(6)--|
|---2---2---2--------|---2---2---2--------|
|--------------------|--------------------|
|--------------------|--------------------|
|--------------------|--------------------|


  E E E E E S S +Q     E E E E E S S +Q
|-0---1---3---1-(1)--|-0---1---3---1-(1)--|
|-1---1---1---1-(1)--|-1---1---1---1-(1)--|
|---2---2---2--------|---2---2---2--------|
|--------------------|--------------------|
|--------------------|--------------------|
|--------------------|--------------------|


  E E E E E S S +Q     E E E E E S S +Q
|-0---1---3---5-(5)--|-0---1---3---5-(5)--|
|-1---1---1---6-(6)--|-1---1---1---6-(6)--|
|---2---2---2--------|---2---2---2--------|
|--------------------|--------------------|
|--------------------|--------------------|
|--------------------|--------------------|


  S S S S S S S S S S S S S S S S   S S S S S S S S S S S S S S S S
|---------------------------------|---------------------------------|
|---------------------------------|---------------------------0-0-0-|
|---------------------------------|-----------0-0-0-0-2-2-2-2-0-0-0-|
|-------------------0-0-0-0-2-2-2-|-2-3-3-3-3-2-2-2-2-3-3-3-3-------|
|-0-2-2-2-2-3-3-3-3-2-2-2-2-3-3-3-|-3-5-5-5-5-----------------------|
|-1-3-3-3-3-5-5-5-5---------------|---------------------------------|


  S S S S S S S S S S S S S S S S   S S S S S S S S S S S S S  S  S  S
|-------------------0-0-0-0-1-1-1-|-1-3-3-3-3-5-5-5-5-7-7-7-7--8--8--8-|
|-0-1-1-1-1-3-3-3-3-1-1-1-1-3-3-3-|-3-5-5-5-5-6-6-6-6-8-8-8-8-10-10-10-|
|-0-2-2-2-2-4-4-4-4---------------|------------------------------------|
|---------------------------------|------------------------------------|
|---------------------------------|------------------------------------|
|---------------------------------|------------------------------------|


  S S S S S S S S S S S S S S S S   S S S S S S S S S S S S S S S S
|---------------------------------|---------------------------0-0-0-|
|---------------------------------|---0-0-0-0-1-1-1-1-3-3-3-3-1-1-1-|
|-------------------0-0-0-0-2-2-2-|-2-0-0-0-0-2-2-2-2-4-4-4-4-------|
|-0-2-2-2-2-3-3-3-3-2-2-2-2-3-3-3-|-3-------------------------------|
|-2-3-3-3-3-5-5-5-5---------------|---------------------------------|
|---------------------------------|---------------------------------|


  S S S S S S S S S S S S S S S S
|-0-1-1-1-1-3-3-3-3-5-5-5-5-7-7-7-|
|-1-3-3-3-3-5-5-5-5-6-6-6-6-8-8-8-|
|---------------------------------|
|---------------------------------|
|---------------------------------|
|---------------------------------|


  S  S  S  S  S  S  S  S  S  S  S  S  S  S  S  S
|-7--8--8--8--8-10-10-10-10-12-12-12-12-13-13-13-||
|-8-10-10-10-10-12-12-12-12-13-13-13-13-15-15-15-||
|------------------------------------------------||
|------------------------------------------------||
|------------------------------------------------||
|------------------------------------------------||


   E  E  E E  E S  S  +Q           E  E  E E  E S  S  +Q
|-12--5-13-5-15-5-13-(13)-----0-|-12--5-13-5-15-5-13-(13)-------|
|-13----13---13---13-(13)---1---|-13----13---13---13-(13)---1---|
|--2------------------(2)-2-----|--9------------------(9)-2---2-|
|-------------------------------|-------------------------------|
|-------------------------------|-------------------------------|
|-------------------------------|-------------------------------|
   H.                 +S  S S S    H.                 +S  S S S


   E  E  E E  E S  S  +Q           E  E  E E  E S  S  +Q
|-12--5-13-5-15-5-17-(17)-------|-12--5-13-5-15-5-17-(17)-------|
|-13----13---13---18-(18)-----1-|-13----13---13---18-(18)-----1-|
|---------------------------2---|--9------------------(9)---2---|
|--3------------------(3)-3-----|-------------------------3-----|
|-------------------------------|-------------------------------|
|-------------------------------|-------------------------------|
   H.                 +S  S S S    H.                 +S  S S S


  E E E E E S S +Q     E E E E E S S +Q
|-0---1---3---1-(1)--|-0---1---3---1-(1)--|
|-1---1---1---1-(1)--|-1---1---1---1-(1)--|
|---2---2---2--------|---2---2---2--------|
|--------------------|--------------------|
|--------------------|--------------------|
|--------------------|--------------------|


  E E E E E S S +Q     E E E E E S S +Q
|-0---1---3---5-(5)--|-0---1---3---5-(5)--||
|-1---1---1---6-(6)--|-1---1---1---6-(6)--||
|---2---2---2--------|---2---2---2--------||
|--------------------|--------------------||
|--------------------|--------------------||
|--------------------|--------------------||


  S S   S S S S S S S S S S S S S S   S S S S S S S S S S S S S S S S
|-----------------------------------|---------------------------------|
|-----------------------------------|---------------------------------|
|-----------------------------------|-------------------0-0-0-0-2-2-2-|
|-----------------------------0-0-0-|-0-2-2-2-2-3-3-3-3-2-2-2-2-3-3-3-|
|---0---0-0-0-2-2-2-2-3-3-3-3-2-2-2-|-2-3-3-3-3-5-5-5-5---------------|
|-3-1---1-1-1-3-3-3-3-5-5-5-5-------|---------------------------------|
  S H..                           S


  S S S S S S S S S S S S S S S S   S S S S S S S S S S S S S S S S
|---------------------------0-0-0-|-0-1-1-1-1-3-3-3-3-5-5-5-5-7-7-7-|
|---0-0-0-0-1-1-1-1-3-3-3-3-1-1-1-|-1-3-3-3-3-5-5-5-5-6-6-6-6-8-8-8-|
|-2-0-0-0-0-2-2-2-2-4-4-4-4-------|---------------------------------|
|-3-------------------------------|---------------------------------|
|---------------------------------|---------------------------------|
|---------------------------------|---------------------------------|


  S S S S S S S S S S S S S S S S   S S S S S S S S S S S S S S S S
|---------------------------------|---------------------------------|
|---------------------------------|-----------0-0-0-0-1-1-1-1-3-3-3-|
|---------------------------0-0-0-|-0-2-2-2-2-0-0-0-0-2-2-2-2-4-4-4-|
|---0-0-0-0-2-2-2-2-3-3-3-3-2-2-2-|-2-3-3-3-3-----------------------|
|-3-2-2-2-2-3-3-3-3-5-5-5-5-------|---------------------------------|
|-5-------------------------------|---------------------------------|


  S S S S S S S S S S S S S S S S   S S S S S  S  S  S  S  S  S  S  S  S  S  S
|---0-0-0-0-1-1-1-1-3-3-3-3-5-5-5-|-5-7-7-7-7--8--8--8--8-10-10-10-10-12-12-12-|
|-3-1-1-1-1-3-3-3-3-5-5-5-5-6-6-6-|-6-8-8-8-8-10-10-10-10-12-12-12-12-13-13-13-|
|-4-------------------------------|--------------------------------------------|
|---------------------------------|--------------------------------------------|
|---------------------------------|--------------------------------------------|
|---------------------------------|--------------------------------------------|


  S S   S S S S S S S S S S S S S S   S S S S S S S S S S S S S S S S
|-----------------------------------|---------------------------------|
|-----------------------------------|---------------------------------|
|-----------------------------------|-------------------0-0-0-0-2-2-2-|
|-----------------------------0-0-0-|-0-2-2-2-2-3-3-3-3-2-2-2-2-3-3-3-|
|---0---0-0-0-2-2-2-2-3-3-3-3-2-2-2-|-2-3-3-3-3-5-5-5-5---------------|
|-3-1---1-1-1-3-3-3-3-5-5-5-5-------|---------------------------------|
  S H..                           S


  S S S S S S S S S S S S S S S S   S S S S S S S S S S S S S S S S
|---------------------------0-0-0-|-0-1-1-1-1-3-3-3-3-5-5-5-5-7-7-7-|
|---0-0-0-0-1-1-1-1-3-3-3-3-1-1-1-|-1-3-3-3-3-5-5-5-5-6-6-6-6-8-8-8-|
|-2-0-0-0-0-2-2-2-2-4-4-4-4-------|---------------------------------|
|-3-------------------------------|---------------------------------|
|---------------------------------|---------------------------------|
|---------------------------------|---------------------------------|


  S S S S S S S S S S S S S S S S   S S S S S S S S S S S S S S S S
|---------------------------------|---------------------------------|
|---------------------------------|-----------0-0-0-0-1-1-1-1-3-3-3-|
|---------------------------0-0-0-|-0-2-2-2-2-0-0-0-0-2-2-2-2-4-4-4-|
|---0-0-0-0-2-2-2-2-3-3-3-3-2-2-2-|-2-3-3-3-3-----------------------|
|-3-2-2-2-2-3-3-3-3-5-5-5-5-------|---------------------------------|
|-5-------------------------------|---------------------------------|


  S S S S S S S S S S S S S S S S   S S S S S  S  S  S  S  S  S  S  S  S  S  S
|---0-0-0-0-1-1-1-1-3-3-3-3-5-5-5-|-5-7-7-7-7--8--8--8--8-10-10-10-10-12-12-12-|
|-3-1-1-1-1-3-3-3-3-5-5-5-5-6-6-6-|-6-8-8-8-8-10-10-10-10-12-12-12-12-13-13-13-|
|-4-------------------------------|--------------------------------------------|
|---------------------------------|--------------------------------------------|
|---------------------------------|--------------------------------------------|
|---------------------------------|--------------------------------------------|


  S S   S S S S S S S S S S S S S S   S S S S S S S S S S S S S S S S
|-----------------------------------|---------------------------------|
|-----------------------------------|---------------------------------|
|-----------------------------------|-------------------0-0-0-0-2-2-2-|
|-----------------------------0-0-0-|-0-2-2-2-2-3-3-3-3-2-2-2-2-3-3-3-|
|---0---0-0-0-2-2-2-2-3-3-3-3-2-2-2-|-2-3-3-3-3-5-5-5-5---------------|
|-3-1---1-1-1-3-3-3-3-5-5-5-5-------|---------------------------------|
  S H..                           S


  S S S S S S S S S S S S S S S S   S S S S S S S S S S S S S S S S
|---------------------------0-0-0-|-0-1-1-1-1-3-3-3-3-5-5-5-5-7-7-7-|
|---0-0-0-0-1-1-1-1-3-3-3-3-1-1-1-|-1-3-3-3-3-5-5-5-5-6-6-6-6-8-8-8-|
|-2-0-0-0-0-2-2-2-2-4-4-4-4-------|---------------------------------|
|-3-------------------------------|---------------------------------|
|---------------------------------|---------------------------------|
|---------------------------------|---------------------------------|


  S S S S S S S S S S S S S S S S   S S S S S S S S S S S S S S S S
|---------------------------------|---------------------------------|
|---------------------------------|-----------0-0-0-0-1-1-1-1-3-3-3-|
|---------------------------0-0-0-|-0-2-2-2-2-0-0-0-0-2-2-2-2-4-4-4-|
|---0-0-0-0-2-2-2-2-3-3-3-3-2-2-2-|-2-3-3-3-3-----------------------|
|-3-2-2-2-2-3-3-3-3-5-5-5-5-------|---------------------------------|
|-5-------------------------------|---------------------------------|


  S S S S S S S S S S S S S S S S   S S S S S  S  S  S  S  S  S  S  S  S  S  S
|---0-0-0-0-1-1-1-1-3-3-3-3-5-5-5-|-5-7-7-7-7--8--8--8--8-10-10-10-10-12-12-12-|
|-3-1-1-1-1-3-3-3-3-5-5-5-5-6-6-6-|-6-8-8-8-8-10-10-10-10-12-12-12-12-13-13-13-|
|-4-------------------------------|--------------------------------------------|
|---------------------------------|--------------------------------------------|
|---------------------------------|--------------------------------------------|
|---------------------------------|--------------------------------------------|


  S S   S S S S S S S S S S S S S S   S S S S S S S S S S S S S S S S
|-----------------------------------|---------------------------------|
|-----------------------------------|---------------------------------|
|-----------------------------------|-------------------0-0-0-0-2-2-2-|
|-----------------------------0-0-0-|-0-2-2-2-2-3-3-3-3-2-2-2-2-3-3-3-|
|---0---0-0-0-2-2-2-2-3-3-3-3-2-2-2-|-2-3-3-3-3-5-5-5-5---------------|
|-3-1---1-1-1-3-3-3-3-5-5-5-5-------|---------------------------------|
  S H..                           S


  S S S S S S S S S S S S S S S S   S S S S S S S S S S S S S S S S
|---------------------------0-0-0-|-0-1-1-1-1-3-3-3-3-5-5-5-5-7-7-7-|
|---0-0-0-0-1-1-1-1-3-3-3-3-1-1-1-|-1-3-3-3-3-5-5-5-5-6-6-6-6-8-8-8-|
|-2-0-0-0-0-2-2-2-2-4-4-4-4-------|---------------------------------|
|-3-------------------------------|---------------------------------|
|---------------------------------|---------------------------------|
|---------------------------------|---------------------------------|


  S S S S S S S S S S S S S S S S   S S S S S S S S S S S S S S S S
|---------------------------------|---------------------------------|
|---------------------------------|-----------0-0-0-0-1-1-1-1-3-3-3-|
|---------------------------0-0-0-|-0-2-2-2-2-0-0-0-0-2-2-2-2-4-4-4-|
|---0-0-0-0-2-2-2-2-3-3-3-3-2-2-2-|-2-3-3-3-3-----------------------|
|-3-2-2-2-2-3-3-3-3-5-5-5-5-------|---------------------------------|
|-5-------------------------------|---------------------------------|


  S S S S S S S S S S S S S S S S   S S S S S  S  S  S  S  S  S  S  S  S  S  S
|---0-0-0-0-1-1-1-1-3-3-3-3-5-5-5-|-5-7-7-7-7--8--8--8--8-10-10-10-10-12-12-12-|
|-3-1-1-1-1-3-3-3-3-5-5-5-5-6-6-6-|-6-8-8-8-8-10-10-10-10-12-12-12-12-13-13-13-|
|-4-------------------------------|--------------------------------------------|
|---------------------------------|--------------------------------------------|
|---------------------------------|--------------------------------------------|
|---------------------------------|--------------------------------------------|


  S S   S S S S S S S S S S S S S S   S S S S S S S S S S S S S S S S
|-----------------------------------|---------------------------------|
|-----------------------------------|---------------------------------|
|-----------------------------------|-------------------0-0-0-0-2-2-2-|
|-----------------------------0-0-0-|-0-2-2-2-2-3-3-3-3-2-2-2-2-3-3-3-|
|---0---0-0-0-2-2-2-2-3-3-3-3-2-2-2-|-2-3-3-3-3-5-5-5-5---------------|
|-3-1---1-1-1-3-3-3-3-5-5-5-5-------|---------------------------------|
  S H..                           S


  S S S S S S S S S S S S S S S S   S S S S S S S S S S S S S S S S
|---------------------------0-0-0-|-0-1-1-1-1-3-3-3-3-5-5-5-5-7-7-7-|
|---0-0-0-0-1-1-1-1-3-3-3-3-1-1-1-|-1-3-3-3-3-5-5-5-5-6-6-6-6-8-8-8-|
|-2-0-0-0-0-2-2-2-2-4-4-4-4-------|---------------------------------|
|-3-------------------------------|---------------------------------|
|---------------------------------|---------------------------------|
|---------------------------------|---------------------------------|


  S S S S S S S S S S S S S S S S   S S S S S S S S S S S S S S S S
|---------------------------------|---------------------------------|
|---------------------------------|-----------0-0-0-0-1-1-1-1-3-3-3-|
|---------------------------0-0-0-|-0-2-2-2-2-0-0-0-0-2-2-2-2-4-4-4-|
|---0-0-0-0-2-2-2-2-3-3-3-3-2-2-2-|-2-3-3-3-3-----------------------|
|-3-2-2-2-2-3-3-3-3-5-5-5-5-------|---------------------------------|
|-5-------------------------------|---------------------------------|


  S S S S S S S S S S S S S S S S   S S S S S  S  S  S  S  S  S  S  S  S  S  S
|---0-0-0-0-1-1-1-1-3-3-3-3-5-5-5-|-5-7-7-7-7--8--8--8--8-10-10-10-10-12-12-12-|
|-3-1-1-1-1-3-3-3-3-5-5-5-5-6-6-6-|-6-8-8-8-8-10-10-10-10-12-12-12-12-13-13-13-|
|-4-------------------------------|--------------------------------------------|
|---------------------------------|--------------------------------------------|
|---------------------------------|--------------------------------------------|
|---------------------------------|--------------------------------------------|


  S S   S S S S S S S S S S S S S S   S S S S S S S S S S S S S S S S
|-----------------------------------|---------------------------------|
|-----------------------------------|---------------------------------|
|-----------------------------------|-------------------0-0-0-0-2-2-2-|
|-----------------------------0-0-0-|-0-2-2-2-2-3-3-3-3-2-2-2-2-3-3-3-|
|---0---0-0-0-2-2-2-2-3-3-3-3-2-2-2-|-2-3-3-3-3-5-5-5-5---------------|
|-3-1---1-1-1-3-3-3-3-5-5-5-5-------|---------------------------------|
  S H..                           S


  S S S S S S S S S S S S S S S S   S S S S S S S S S S S S S S S S
|---------------------------0-0-0-|-0-1-1-1-1-3-3-3-3-5-5-5-5-7-7-7-|
|---0-0-0-0-1-1-1-1-3-3-3-3-1-1-1-|-1-3-3-3-3-5-5-5-5-6-6-6-6-8-8-8-|
|-2-0-0-0-0-2-2-2-2-4-4-4-4-------|---------------------------------|
|-3-------------------------------|---------------------------------|
|---------------------------------|---------------------------------|
|---------------------------------|---------------------------------|


  S S S S S S S S S S S S S S S S   S S S S S S S S S S S S S S S S
|---------------------------------|---------------------------------|
|---------------------------------|-----------0-0-0-0-1-1-1-1-3-3-3-|
|---------------------------0-0-0-|-0-2-2-2-2-0-0-0-0-2-2-2-2-4-4-4-|
|---0-0-0-0-2-2-2-2-3-3-3-3-2-2-2-|-2-3-3-3-3-----------------------|
|-3-2-2-2-2-3-3-3-3-5-5-5-5-------|---------------------------------|
|-5-------------------------------|---------------------------------|


  S S S S S S S S S S S S S S S S   S S S S S  S  S  S  S  S  S  S  S  S  S  S
|---0-0-0-0-1-1-1-1-3-3-3-3-5-5-5-|-5-7-7-7-7--8--8--8--8-10-10-10-10-12-12-12-|
|-3-1-1-1-1-3-3-3-3-5-5-5-5-6-6-6-|-6-8-8-8-8-10-10-10-10-12-12-12-12-13-13-13-|
|-4-------------------------------|--------------------------------------------|
|---------------------------------|--------------------------------------------|
|---------------------------------|--------------------------------------------|
|---------------------------------|--------------------------------------------|


  S S   S S S S S S S S S S S S S S   S S S S S S S S S S S S S S S S
|-----------------------------------|---------------------------------|
|-----------------------------------|---------------------------------|
|-----------------------------------|-------------------0-0-0-0-2-2-2-|
|-----------------------------0-0-0-|-0-2-2-2-2-3-3-3-3-2-2-2-2-3-3-3-|
|---0---0-0-0-2-2-2-2-3-3-3-3-2-2-2-|-2-3-3-3-3-5-5-5-5---------------|
|-3-1---1-1-1-3-3-3-3-5-5-5-5-------|---------------------------------|
  S H..                           S


  S S S S S S S S S S S S S S S S   S S S S S S S S S S S S S S S S
|---------------------------0-0-0-|-0-1-1-1-1-3-3-3-3-5-5-5-5-7-7-7-|
|---0-0-0-0-1-1-1-1-3-3-3-3-1-1-1-|-1-3-3-3-3-5-5-5-5-6-6-6-6-8-8-8-|
|-2-0-0-0-0-2-2-2-2-4-4-4-4-------|---------------------------------|
|-3-------------------------------|---------------------------------|
|---------------------------------|---------------------------------|
|---------------------------------|---------------------------------|


  S S S S S S S S S S S S S S S S   S S S S S S S S S S S S S S S S
|---------------------------------|---------------------------------|
|---------------------------------|-----------0-0-0-0-1-1-1-1-3-3-3-|
|---------------------------0-0-0-|-0-2-2-2-2-0-0-0-0-2-2-2-2-4-4-4-|
|---0-0-0-0-2-2-2-2-3-3-3-3-2-2-2-|-2-3-3-3-3-----------------------|
|-3-2-2-2-2-3-3-3-3-5-5-5-5-------|---------------------------------|
|-5-------------------------------|---------------------------------|


  S S S S S S S S S S S S S S S S   S S S S S  S  S  S  S  S  S  S  S  S  S  S
|---0-0-0-0-1-1-1-1-3-3-3-3-5-5-5-|-5-7-7-7-7--8--8--8--8-10-10-10-10-12-12-12-|
|-3-1-1-1-1-3-3-3-3-5-5-5-5-6-6-6-|-6-8-8-8-8-10-10-10-10-12-12-12-12-13-13-13-|
|-4-------------------------------|--------------------------------------------|
|---------------------------------|--------------------------------------------|
|---------------------------------|--------------------------------------------|
|---------------------------------|--------------------------------------------|


  S S   S S S S S S S S S S S S S S   S S S S S S S S S S S S S S S S
|-----------------------------------|---------------------------------|
|-----------------------------------|---------------------------------|
|-----------------------------------|-------------------0-0-0-0-2-2-2-|
|-----------------------------0-0-0-|-0-2-2-2-2-3-3-3-3-2-2-2-2-3-3-3-|
|---0---0-0-0-2-2-2-2-3-3-3-3-2-2-2-|-2-3-3-3-3-5-5-5-5---------------|
|-3-1---1-1-1-3-3-3-3-5-5-5-5-------|---------------------------------|
  S H..                           S


  S S S S S S S S S S S S S S S S   S S S S S S S S S S S S S S S S
|---------------------------0-0-0-|-0-1-1-1-1-3-3-3-3-5-5-5-5-7-7-7-|
|---0-0-0-0-1-1-1-1-3-3-3-3-1-1-1-|-1-3-3-3-3-5-5-5-5-6-6-6-6-8-8-8-|
|-2-0-0-0-0-2-2-2-2-4-4-4-4-------|---------------------------------|
|-3-------------------------------|---------------------------------|
|---------------------------------|---------------------------------|
|---------------------------------|---------------------------------|


  S S S S S S S S S S S S S S S S   S S S S S S S S S S S S S S S S
|---------------------------------|---------------------------------|
|---------------------------------|-----------0-0-0-0-1-1-1-1-3-3-3-|
|---------------------------0-0-0-|-0-2-2-2-2-0-0-0-0-2-2-2-2-4-4-4-|
|---0-0-0-0-2-2-2-2-3-3-3-3-2-2-2-|-2-3-3-3-3-----------------------|
|-3-2-2-2-2-3-3-3-3-5-5-5-5-------|---------------------------------|
|-5-------------------------------|---------------------------------|


  S S S S S S S S S S S S S S S S
|---0-0-0-0-1-1-1-1-3-3-3-3-5-5-5-|
|-3-1-1-1-1-3-3-3-3-5-5-5-5-6-6-6-|
|-4-------------------------------|
|---------------------------------|
|---------------------------------|
|---------------------------------|


  S S S S S  S  S  S  S  S  S  S  S  S  S  S
|-5-7-7-7-7--8--8--8--8-10-10-10-10-12-12-12-||
|-6-8-8-8-8-10-10-10-10-12-12-12-12-13-13-13-||
|--------------------------------------------||
|--------------------------------------------||
|--------------------------------------------||
|--------------------------------------------||


  E E E E E S S +Q     E E E E E S S +Q
|-0---1---3---1-(1)--|-0---1---3---1-(1)--|
|-1---1---1---1-(1)--|-1---1---1---1-(1)--|
|---2---2---2--------|---2---2---2--------|
|--------------------|--------------------|
|--------------------|--------------------|
|--------------------|--------------------|


  E E E E E S S +Q     E E E E E S S +Q
|-0---1---3---5-(5)--|-0---1---3---5-(5)--|
|-1---1---1---6-(6)--|-1---1---1---6-(6)--|
|---2---2---2--------|---2---2---2--------|
|--------------------|--------------------|
|--------------------|--------------------|
|--------------------|--------------------|


  E E E E E S S +Q     E E E E E S S +Q
|-0---1---3---1-(1)--|-0---1---3---1-(1)--|
|-1---1---1---1-(1)--|-1---1---1---1-(1)--|
|---2---2---2--------|---2---2---2--------|
|--------------------|--------------------|
|--------------------|--------------------|
|--------------------|--------------------|


  E E E E E S S +Q     E E E E E S S +Q
|-0---1---3---5-(5)--|-0---1---3---5-(5)--|
|-1---1---1---6-(6)--|-1---1---1---6-(6)--|
|---2---2---2--------|---2---2---2--------|
|--------------------|--------------------|
|--------------------|--------------------|
|--------------------|--------------------|


  E E E E E S S +Q     E E E E E S S +Q
|-0---1---3---1-(1)--|-0---1---3---1-(1)--|
|-1---1---1---1-(1)--|-1---1---1---1-(1)--|
|---2---2---2--------|---2---2---2--------|
|--------------------|--------------------|
|--------------------|--------------------|
|--------------------|--------------------|


  E E E E E S S +Q     E E E E E S S +Q
|-0---1---3---5-(5)--|-0---1---3---5-(5)--|
|-1---1---1---6-(6)--|-1---1---1---6-(6)--|
|---2---2---2--------|---2---2---2--------|
|--------------------|--------------------|
|--------------------|--------------------|
|--------------------|--------------------|


  E E E E E S S +Q     E E E E E S S +Q
|-0---1---3---1-(1)--|-0---1---3---1-(1)--|
|-1---1---1---1-(1)--|-1---1---1---1-(1)--|
|---2---2---2--------|---2---2---2--------|
|--------------------|--------------------|
|--------------------|--------------------|
|--------------------|--------------------|


  E E E E E S S +Q     E E E E E S S +Q
|-0---1---3---5-(5)--|-0---1---3---5-(5)--|
|-1---1---1---6-(6)--|-1---1---1---6-(6)--|
|---2---2---2--------|---2---2---2--------|
|--------------------|--------------------|
|--------------------|--------------------|
|--------------------|--------------------|


  E E E E E S S +Q     E E E E E S S +Q
|-0---1---3---1-(1)--|-0---1---3---1-(1)--|
|-1---1---1---1-(1)--|-1---1---1---1-(1)--|
|---2---2---2--------|---2---2---2--------|
|--------------------|--------------------|
|--------------------|--------------------|
|--------------------|--------------------|


  E E E E E S S +Q     E E E E E S S +Q
|-0---1---3---5-(5)--|-0---1---3---5-(5)--|
|-1---1---1---6-(6)--|-1---1---1---6-(6)--|
|---2---2---2--------|---2---2---2--------|
|--------------------|--------------------|
|--------------------|--------------------|
|--------------------|--------------------|


  E E E E E S S +Q     E E E E E S S +Q
|-0---1---3---1-(1)--|-0---1---3---1-(1)--|
|-1---1---1---1-(1)--|-1---1---1---1-(1)--|
|---2---2---2--------|---2---2---2--------|
|--------------------|--------------------|
|--------------------|--------------------|
|--------------------|--------------------|


  E E E E E S S +Q     E E E E E S S +Q
|-0---1---3---5-(5)--|-0---1---3---5-(5)--|
|-1---1---1---6-(6)--|-1---1---1---6-(6)--|
|---2---2---2--------|---2---2---2--------|
|--------------------|--------------------|
|--------------------|--------------------|
|--------------------|--------------------|


  E E E E E S S +Q     E E E E E S S +Q
|-0---1---3---1-(1)--|-0---1---3---1-(1)--|
|-1---1---1---1-(1)--|-1---1---1---1-(1)--|
|---2---2---2--------|---2---2---2--------|
|--------------------|--------------------|
|--------------------|--------------------|
|--------------------|--------------------|


  E E E E E S S +Q     E E E E E S S +Q
|-0---1---3---5-(5)--|-0---1---3---5-(5)--|
|-1---1---1---6-(6)--|-1---1---1---6-(6)--|
|---2---2---2--------|---2---2---2--------|
|--------------------|--------------------|
|--------------------|--------------------|
|--------------------|--------------------|


  E E E E E S S +Q     E E E E E S S +Q
|-0---1---3---1-(1)--|-0---1---3---1-(1)--|
|-1---1---1---1-(1)--|-1---1---1---1-(1)--|
|---2---2---2--------|---2---2---2--------|
|--------------------|--------------------|
|--------------------|--------------------|
|--------------------|--------------------|


  E E E E E S S +Q     E E E E E S S +Q
|-0---1---3---5-(5)--|-0---1---3---5-(5)--|
|-1---1---1---6-(6)--|-1---1---1---6-(6)--|
|---2---2---2--------|---2---2---2--------|
|--------------------|--------------------|
|--------------------|--------------------|
|--------------------|--------------------|


  E E E E E S S +Q     E E E E E S S +Q
|-0---1---3---1-(1)--|-0---1---3---1-(1)--|
|-1---1---1---1-(1)--|-1---1---1---1-(1)--|
|---2---2---2--------|---2---2---2--------|
|--------------------|--------------------|
|--------------------|--------------------|
|--------------------|--------------------|


  E E E E E S S +Q     E E E E E S S +Q
|-0---1---3---5-(5)--|-0---1---3---5-(5)--|
|-1---1---1---6-(6)--|-1---1---1---6-(6)--|
|---2---2---2--------|---2---2---2--------|
|--------------------|--------------------|
|--------------------|--------------------|
|--------------------|--------------------|


  E E E E E S S +Q     E E E E E S S +Q
|-0---1---3---1-(1)--|-0---1---3---1-(1)--|
|-1---1---1---1-(1)--|-1---1---1---1-(1)--|
|---2---2---2--------|---2---2---2--------|
|--------------------|--------------------|
|--------------------|--------------------|
|--------------------|--------------------|


  E E E E E S S +Q     E E E E E S S +Q
|-0---1---3---5-(5)--|-0---1---3---5-(5)--|
|-1---1---1---6-(6)--|-1---1---1---6-(6)--|
|---2---2---2--------|---2---2---2--------|
|--------------------|--------------------|
|--------------------|--------------------|
|--------------------|--------------------|


  E E E E E S S +Q     E E E E E S S +Q
|-0---1---3---1-(1)--|-0---1---3---1-(1)--|
|-1---1---1---1-(1)--|-1---1---1---1-(1)--|
|---2---2---2--------|---2---2---2--------|
|--------------------|--------------------|
|--------------------|--------------------|
|--------------------|--------------------|


  E E E E E S S +Q     E E E E E S S +Q
|-0---1---3---5-(5)--|-0---1---3---5-(5)--|
|-1---1---1---6-(6)--|-1---1---1---6-(6)--|
|---2---2---2--------|---2---2---2--------|
|--------------------|--------------------|
|--------------------|--------------------|
|--------------------|--------------------|


  E E E E E S S +Q     E E E E E S S +Q
|-0---1---3---1-(1)--|-0---1---3---1-(1)--|
|-1---1---1---1-(1)--|-1---1---1---1-(1)--|
|---2---2---2--------|---2---2---2--------|
|--------------------|--------------------|
|--------------------|--------------------|
|--------------------|--------------------|


  E E E E E S S +Q     E E E E E S S +Q
|-0---1---3---5-(5)--|-0---1---3---5-(5)--|
|-1---1---1---6-(6)--|-1---1---1---6-(6)--|
|---2---2---2--------|---2---2---2--------|
|--------------------|--------------------|
|--------------------|--------------------|
|--------------------|--------------------|


  >                    >
  E E E E E S S +Q     E E E E E S S +Q
|-0---1---3---1-(1)--|-0---1---3---1-(1)--|
|-1---1---1---1-(1)--|-1---1---1---1-(1)--|
|---2---2---2--------|---2---2---2--------|
|--------------------|--------------------|
|--------------------|--------------------|
|--------------------|--------------------|


  >                    >
  E E E E E S S +Q     E E E E E S S +Q
|-0---1---3---5-(5)--|-0---1---3---5-(5)--||
|-1---1---1---6-(6)--|-1---1---1---6-(6)--||
|---2---2---2--------|---2---2---2--------||
|--------------------|--------------------||
|--------------------|--------------------||
|--------------------|--------------------||


                Live On (24:19)
                 Q=176
  Gtr III
                  \4
  Wx18            W                             +W
|-------------||-----------------------------|----------------------------------|
|-------------||-----------------------------|----------------------------------|
|-------------||-<5>-------------------------|-(<5>)----------------------------|
|-------------||-----------------------------|----------------------------------|
|-------------||-----------------------------|----------------------------------|
|-------------||-----------------------------|----------------------------------|
|
| Gtr IV
|                    PM------------|   PM|       PM------------------|   PM|
| Wx18            E  S S S S S S S S E S S E     S   S S S S S S S S S E S S  E
|-------------||-----------------------------|----------------------------------|
|-------------||-----------------------------|----------------------------------|
|-------------||--5------------------5-----7-|-------------------------7------9-|
|-------------||--7------------------7-----9-|-------------------------9-----10-|
|-------------||-----0-0-0-0-0-0-0-0---0-0---|---0---0-0-0-0-0-0-0-0-0---0-0----|
|-------------||-----------------------------|----------------------------------|


   +W                                  +W
|-----------------------------------|---------------------------------------|
|-----------------------------------|---------------------------------------|
|-(<5>)-----------------------------|-(<5>)---------------------------------|
|-----------------------------------|---------------------------------------|
|-----------------------------------|---------------------------------------|
|-----------------------------------|---------------------------------------|
|
|   PM------------------|    PM|        PM------------------------------|
|   S   S S S S S S S S S  E S S  E     S   S S S S S S S S S S S S S S S
|-----------------------------------|---------------------------------------|
|-----------------------------------|---------------------------------------|
|--------------------------9------9-|---------------------------------------|
|-------------------------10-----10-|---------------------------------------|
|---0---0-0-0-0-0-0-0-0-0----0-0----|---0---0-0-0-0-0-0-0-0-0-0-0-0-0-0-0---|
|-----------------------------------|---------------------------------------|


  Gtr IV
    PM------------|   PM|     PM----------------|   PM|
  E S S S S S S S S E S S E   S S S S S S S S S S E S S  E
|---------------------------|------------------------------|
|---------------------------|------------------------------|
|-5-----------------5-----7-|---------------------7------9-|
|-7-----------------7-----9-|---------------------9-----10-|
|---0-0-0-0-0-0-0-0---0-0---|-0-0-0-0-0-0-0-0-0-0---0-0----|
|---------------------------|------------------------------|


  PM----------------|    PM|      PM----------------------------|
  S S S S S S S S S S  E S S  E   S S S S S S S S S S S S S S S S
|-------------------------------|------------------------------------||
|-------------------------------|------------------------------------||
|----------------------9------9-|------------------------------------||
|---------------------10-----10-|------------------------------------||
|-0-0-0-0-0-0-0-0-0-0----0-0----|-0-0-0-0-0-0-0-0-0-0-0-0-0-0-0-0----||
|-------------------------------|------------------------------------||


  Gtr III
  E E E E E E E E    E  E E E E E E E   W
|-5---------------|--5----------------|----------------------------|
|---8-6-5---5-6-8-|-----8-6-5---5-6-8-|-5--------------------------|
|---------7-------|-----------7-------|----------------------------|
|-----------------|-------------------|----------------------------|
|-----------------|-------------------|----------------------------|
|-----------------|-------------------|----------------------------|
|
| Gtr IV
|                                         PM------------|   PM|
| W                 +W                  E S S S S S S S S E S S  E
|-----------------|-------------------|----------------------------|
|-----------------|-------------------|----------------------------|
|-----------------|-------------------|-6-----------------7------9-|
|-3---------------|-(3)---------------|-7-----------------9-----11-|
|-1---------------|-(1)---------------|---0-0-0-0-0-0-0-0---0-0----|
|-----------------|-------------------|----------------------------|
|
| Gtr V
| E E E E E E E E    E  E E E E E E E   W
|-----------------|-------------------|----------------------------|
|-6-5-----------5-|--6--5-----------5-|----------------------------|
|-----7-5---5-7---|-------7-5---5-7---|-6--------------------------|
|---------8-------|-----------8-------|----------------------------|
|-----------------|-------------------|----------------------------|
|-----------------|-------------------|----------------------------|


  +W                                 E E E E E E E E
|----------------------------------|-5------------------|
|-(5)------------------------------|---8-6-5---5-6-8----|
|----------------------------------|---------7----------|
|----------------------------------|--------------------|
|----------------------------------|--------------------|
|----------------------------------|--------------------|
|
|  PM-----------------|    PM----|
|  S  S S S S S S S S S  E S S S S   W
|----------------------------------|--------------------|
|----------------------------------|--------------------|
|------------------------9---------|--------------------|
|-----------------------11---------|-3------------------|
|--0--0-0-0-0-0-0-0-0-0----0-0-0-0-|-1------------------|
|----------------------------------|--------------------|
|
| +W                                 E E E E E E E E
|----------------------------------|--------------------|
|----------------------------------|-6-5-----------5----|
|-(6)------------------------------|-----7-5---5-7------|
|----------------------------------|---------8----------|
|----------------------------------|--------------------|
|----------------------------------|--------------------|


   E  E E E E E E E   W           Q.    Q.    Q
|--5--------------5-|-6--------|--8----10----12--|
|-----8-6-5---5-6---|----------|-----------------|
|-----------7-------|----------|-----------------|
|-------------------|----------|-----------------|
|-------------------|----------|-----------------|
|-------------------|----------|-----------------|
|
| +W                  W          +W
|-------------------|----------|-----------------|
|-------------------|----------|-----------------|
|-------------------|----------|-----------------|
|-(3)---------------|-5--------|-(5)-------------|
|-(1)---------------|-3--------|-(3)-------------|
|-------------------|----------|-----------------|
|
|  E  E E E E E E E   W           Q.    Q.    Q
|-------------------|----------|-----------------|
|--6--5-----------6-|-8--------|-10----11----13--|
|-------7-5---5-7---|----------|-----------------|
|-----------8-------|----------|-----------------|
|-------------------|----------|-----------------|
|-------------------|----------|-----------------|


   W              +W            +W            +W
|-12b14--------|-(12)--------|-(12)--------|-(12)----||
|--------------|-------------|-------------|---------||
|--------------|-------------|-------------|---------||
|--------------|-------------|-------------|---------||
|--------------|-------------|-------------|---------||
|--------------|-------------|-------------|---------||
|
|  W              +W            +W            +W
|--------------|-------------|-------------|---------||
|--------------|-------------|-------------|---------||
|--------------|-------------|-------------|---------||
|--7-----------|--(7)--------|--(7)--------|--(7)----||
|--5-----------|--(5)--------|--(5)--------|--(5)----||
|--------------|-------------|-------------|---------||
|
|  W              +W            +W            +W
|--------------|-------------|-------------|---------||
|-13b15--------|-(13)--------|-(13)--------|-(13)----||
|--------------|-------------|-------------|---------||
|--------------|-------------|-------------|---------||
|--------------|-------------|-------------|---------||
|--------------|-------------|-------------|---------||


  Gtrs III, IV
  PM----|    PM----|    PM----|      PM----|   PM----|   PM---
  S S S S  E S S S S  E S S S S    E S S S S E S S S S E S S
|-------------------------------|----------------------------|
|-------------------------------|----------------------------|
|-------------------------------|----------------------------|
|----------9----------9---------|--9---------7---------5-----|
|---------10---------10---------|-10---------9---------7-----|
|-0-0-0-0----0-0-0-0----0-0-0-0-|----0-0-0-0---0-0-0-0---0-0-|


 -------|   PM----|   PM----|     PM----|   PM----|   PM|
  S S S S E S S S S E S S S S   E S S S S E S S S S E S S
|-----------------------------|-----------------------------|
|-----------------------------|-----------------------------|
|-----------------------------|-----------------------------|
|---------5---------5---------|-5---------4---------2-------|
|-3-3-3-3---3-3-3-3---3-3-3-3-|---3-3-3-3---3-3-3-3---3-3---|
|-----------------------------|-----------------------------|


  PM----|   PM----|   PM----|     PM----|   PM----|
  S S S S E S S S S E S S S S   E S S S S E S S S S E E
|-----------------------------|-------------------------|
|-----------------------------|-------------------------|
|-----------------------------|-------------------------|
|---------7---------4---------|-7---------4---------4-7-|
|-5-5-5-5---5-5-5-5---5-5-5-5-|---5-5-5-5---5-5-5-5-----|
|-----------------------------|-------------------------|


  PM----------|        PM--------|
  E E S S S S E Q  E   E E S S S S E E E E
|--------------------|----------------------|
|--------------------|----------------------|
|--------------------|----------------------|
|--------------------|-4-4-4-4-4-4----------|
|-5-5-5-5-5-5-5------|-2-2-2-2-2-2-2-0------|
|-3-3-3-3-3-3-3-5--3-|-----------------3-2--|


  PM----|    PM----|    PM----|      PM----|   PM----|   PM|
  S S S S  E S S S S  E S S S S    E S S S S E S S S S E S S   W
|-------------------------------|----------------------------|------|
|-------------------------------|----------------------------|------|
|-------------------------------|----------------------------|------|
|----------9----------9---------|--9---------7---------5-----|-5----|
|---------10---------10---------|-10---------9---------7-----|-3----|
|-0-0-0-0----0-0-0-0----0-0-0-0-|----0-0-0-0---0-0-0-0---0-0-|------|


                   PM------------------|     PM--------------|
  Q.   Q.   Q    E E S S S S E E S S S S   E E S S S S E E E E
|--------------|-------------------------|---------------------|
|--------------|-------------------------|---------------------|
|--------------|-------------------------|---------------------|
|-2----4----4--|-4-4-4-4-4-4-4-4-4-4-4-4-|-4-4-4-4-4-4-4---4-7-|
|--------------|-------------------------|---------------6-----|
|--------------|-------------------------|---------------------|
|
| Gtr IV
|                  PM----------------------------------------|
| Q.   Q.   Q    E E S S S S E E S S S S   E E S S S S E E E E
|--------------|-------------------------|---------------------|
|--------------|-------------------------|---------------------|
|--------------|-------------------------|---------------------|
|--------------|-7-7-7-7-7-7-7-7-7-7-7-7-|-9-9-9-9-9-9---------|
|-3----5----7--|-5-5-5-5-5-5-5-5-5-5-5-5-|-6-6-6-6-6-6-6---6-9-|
|--------------|-------------------------|---------------7-----|


    PM----------------------|   PM|
  E E S S S S E E S S S S   E E E E q  q
|-------------------------|---------------||
|-------------------------|---------------||
|-------------------------|---------------||
|-5-5-5-5-5-5-5-5-5-5-5-5-|---5-----5--4--||
|-------------------------|---------------||
|-------------------------|-0---0-0-------||
|
|   PM----------------------|   PM|
| E E S S S S E E S S S S   E E E E q  q
|-------------------------|---------------||
|-------------------------|---------------||
|-------------------------|---------------||
|-9-9-9-9-9-9-9-9-9-9-9-9-|---9-----9--7--||
|-7-7-7-7-7-7-7-7-7-7-7-7-|---7-----7--5--||
|-------------------------|-0---0-0-------||


  W          W          W          W
|----------|----------|----------|------|
|----------|----------|----------|------|
|----------|----------|----------|------|
|-2--------|-4--------|----------|-1----|
|----------|----------|-2--------|------|
|----------|----------|----------|------|
|
| W          W          W          W
|----------|----------|----------|------|
|----------|----------|----------|------|
|----------|----------|----------|------|
|-5--------|-7--------|----------|-4----|
|-3--------|-5--------|-5--------|-2----|
|----------|----------|-3--------|------|


  PM--------------------------------------------------------------|
  S S S S S S S S S S S S S S S S   S S S S S S S S S S S S S S S S
|---------------------------------|---------------------------------|
|---------------------------------|---------------------------------|
|---------------------------------|---------------------------------|
|-2-2-2-2-5-5-5-5-4-4-4-4-2-2-2-2-|-2-2-2-2-5-5-5-5-4-4-4-4-2-2-2-2-|
|---------------------------------|---------------------------------|
|---------------------------------|---------------------------------|
|
| PM--------------------------------------------------------------|
| E   E   S S S S E   E   S S S S   E   E   S S S S E   E   S S S S
|---------------------------------|---------------------------------|
|---------------------------------|---------------------------------|
|---------------------------------|---------------------------------|
|-5---5---5-5-5-5-5---5---5-5-5-5-|-7---7---7-7-7-7-7---7---7-7-7-7-|
|-3---3---3-3-3-3-3---3---3-3-3-3-|-4---4---4-4-4-4-4---4---4-4-4-4-|
|---------------------------------|---------------------------------|


  PM----------------------------------------------|
  S S S S S S S S S S S S S S S S   S S S S S S S S E Q  E
|---------------------------------|------------------------|
|---------------------------------|------------------------|
|---------------------------------|------------------------|
|-4-4-4-4-7-7-7-7-5-5-5-5-4-4-4-4-|-1-1-1-1-4-4-4-4--------|
|---------------------------------|-----------------2-0--2-|
|---------------------------------|------------------------|
|
| PM----------------------------------------------|
| E   E   S S S S E   E   S S S S   E   E   S S S S E Q  E
|---------------------------------|------------------------|
|---------------------------------|------------------------|
|---------------------------------|------------------------|
|-7---7---7-7-7-7-7---7---7-7-7-7-|-4---4---4-4-4-4-4------|
|-5---5---5-5-5-5-5---5---5-5-5-5-|-2---2---2-2-2-2-2-0--2-|
|---------------------------------|------------------------|


  W          W          W          W          W          W
|----------|----------|----------|----------|----------|------||
|----------|----------|----------|----------|----------|------||
|----------|----------|----------|----------|----------|------||
|-2--------|-4--------|----------|-1--------|-2--------|-4----||
|----------|----------|-2--------|----------|----------|------||
|----------|----------|----------|----------|----------|------||
|
| W          W          W          W          W          W
|----------|----------|----------|----------|----------|------||
|----------|----------|----------|----------|----------|------||
|----------|----------|----------|----------|----------|------||
|-5--------|-7--------|----------|-4--------|-5--------|-7----||
|-3--------|-5--------|-5--------|-2--------|-3--------|-5----||
|----------|----------|-3--------|----------|----------|------||


  G6                                       D/F#  G6
  Gtr I
   H          +E  Q     E   +H          +E  Q     E
   |           |  |     |    |           |  |     |
   /           /  /     /    /           /  /     /

   E  E  E  E  E  E  E  E    E  E  E  E  E  E  E  E
|-------------------------|-------------------------|
|-12----12-------12-13-12-|-13----12-13-12----12----|
|----14----12-14----------|----14----------14----12-|
|-------------------------|-------------------------|
|-------------------------|-------------------------|
|-------------------------|-------------------------|
|
|  PM------------------------------------------------
|  E  E  E  E  E  E  E  E    E  E  E  E  E  E  E  E
|-------------------------|-------------------------|
|-------------------------|-------------------------|
|-------------------------|-------------------------|
|--9--9--9--9--9--9--9--9-|--9--9--9--9--9--9--9--9-|
|--7--7--7--7--7--7--7--7-|--7--7--7--7--7--7--7--7-|
|-------------------------|-------------------------|
|
| Gtr V
|  E  E  E  E  E  E  E  E    E  E  E  E  E  E  E  E
|-------------------------|-------------------------|
|-------------------------|-------------------------|
|-12-11-12----11-12-14-12-|-14-11-12-14-12-11-12----|
|----------14-------------|----------------------14-|
|-------------------------|-------------------------|
|-------------------------|-------------------------|


                 Cm/G                      B
  +H          +E  Q     E   +H          +E  Q.
   |           |  |     |    |           |  |
   /           /  /     /    /           /  /

   E  E  E  E  E  E  E  E    E  E  E  E  E  E   E  E
|----------------11-12-14-|--------------------------|
|----12-13-12-13----------|-12----12-------12--13-12-|
|-14----------------------|----14----12-14-----------|
|-------------------------|--------------------------|
|-------------------------|--------------------------|
|-------------------------|--------------------------|
|
|-------------------------------------------------|
|  E  E  E  E  E  E  E  E    E  E  E  E  E  E   E  E
|-------------------------|--------------------------|
|-------------------------|--------------------------|
|-------------------------|--------------------------|
|--9--9--9--9--9--9--9--9-|--9--9--9--9--9--9---9--9-|
|--7--7--7--7--7--7--7--7-|--7--7--7--7--7--7---7--7-|
|-------------------------|--------------------------|
|
|  E  E  E  E  E  E  E  E    E  E  E  E  E  E   E  E
|-------------------------|--------------------------|
|-------------------------|--------------------------|
|-11-12-14-12-14-11-12-14-|-12-11-12----11-12--14-12-|
|-------------------------|----------14--------------|
|-------------------------|--------------------------|
|-------------------------|--------------------------|


  Em+5           F#m+5 G6XII               Bm
   H          +E  Q     E   +H          +E  Q     E
   |           |  |     |    |           |  |     |
   /           /  /     /    /           /  /     /

   E  E  E  E  E  E  E  E    E  E  E  E  E  E  E  E
|-------------------------|----------------11-12-14-|
|-13----12-13-12----12----|----12-13-12-13----------|
|----14----------14----14-|-14----------------------|
|-------------------------|-------------------------|
|-------------------------|-------------------------|
|-------------------------|-------------------------|
|
|  PM------------------------------------------------
|  E  E  E  E  E  E  E  E    E  E  E  E  E  E  E  E
|-------------------------|-------------------------|
|-------------------------|-------------------------|
|-------------------------|-------------------------|
|--9--9--9--9--9--9--9--9-|--9--9--9--9--9--9--9--9-|
|--7--7--7--7--7--7--7--7-|--7--7--7--7--7--7--7--7-|
|-------------------------|-------------------------|
|
|  E  E  E  E  E  E  E  E    E  E  E  E  E  E  E  E
|-------------------------|-------------------------|
|-------------------------|-------------------------|
|-14-11-12-14-12-11-12----|-11-12-14-12-14-11-12-14-|
|----------------------14-|-------------------------|
|-------------------------|-------------------------|
|-------------------------|-------------------------|


                 Cm    C6
  +H          +E  Q     E   +H          +E  Q.
   |           |  |     |    |           |  |
   /           /  /     /    /           /  /

   E  E  E  E  E  E  E  E    E  E  E  E  E  E   E  E
|-------------------------|----11-12-14-15-14--15-19-||
|-12----12-------12-13-12-|-13-----------------------||
|----14----12-14----------|--------------------------||
|-------------------------|--------------------------||
|-------------------------|--------------------------||
|-------------------------|--------------------------||
|
|-------------------------------------------------|
|  E  E  E  E  E  E  E  E    E  E  E  E  E  E   E  E
|-------------------------|--------------------------||
|-------------------------|--------------------------||
|-------------------------|--------------------------||
|--9--9--9--9--9--9--9--9-|--9--9--9--9--9--9---9--9-||
|--7--7--7--7--7--7--7--7-|--7--7--7--7--7--7---7--7-||
|-------------------------|--------------------------||
|
|  E  E  E  E  E  E  E  E    E  E  E  E  E  E   E  E
|-------------------------|----------11-12-11--12-15-||
|-------------------------|----12-13-----------------||
|-12-11-12----11-12-14-12-|-14-----------------------||
|----------14-------------|--------------------------||
|-------------------------|--------------------------||
|-------------------------|--------------------------||


   E  E  E  E  E  E  E  E     E   E  E  E  E  E  E  E
|-12----------------------|--12-----------------------|
|----15-13-12----12-13-15-|------15-13-12----12-13-15-|
|-------------14----------|---------------14----------|
|-------------------------|---------------------------|
|-------------------------|---------------------------|
|-------------------------|---------------------------|
|
|  W                         +W
|-------------------------|---------------------------|
|-------------------------|---------------------------|
|-------------------------|---------------------------|
|-10----------------------|-(10)----------------------|
|--8----------------------|--(8)----------------------|
|-------------------------|---------------------------|
|
|  E  E  E  E  E  E  E  E     E   E  E  E  E  E  E  E
|-------------------------|---------------------------|
|-13-12----------------12-|--13--12----------------12-|
|-------14-12----12-14----|---------14-12----12-14----|
|-------------15----------|---------------15----------|
|-------------------------|---------------------------|
|-------------------------|---------------------------|


   W                             +W
|-----------------------------|-----------------------------------|
|-12--------------------------|-(12)------------------------------|
|-----------------------------|-----------------------------------|
|-----------------------------|-----------------------------------|
|-----------------------------|-----------------------------------|
|-----------------------------|-----------------------------------|
|
|    PM------------|   PM|        PM-----------------|    PM----|
|  E S S S S S S S S E S S  E     S  S S S S S S S S S  E S S S S
|-----------------------------|-----------------------------------|
|-----------------------------|-----------------------------------|
|-----------------------------|-----------------------------------|
|--6-----------------7------9-|-------------------------9---------|
|--7-----------------8-----11-|------------------------11---------|
|----0-0-0-0-0-0-0-0---0-0----|---0--0-0-0-0-0-0-0-0-0----0-0-0-0-|
|
|  W                             +W
|-----------------------------|-----------------------------------|
|-----------------------------|-----------------------------------|
|-13--------------------------|-(13)------------------------------|
|-----------------------------|-----------------------------------|
|-----------------------------|-----------------------------------|
|-----------------------------|-----------------------------------|


   E  E  E  E  E  E  E  E     E   E  E  E  E  E  E  E    W            W
|-12----------------------|--12--------------------12-|-13--------|--13b15----||
|----15-13-12----12-13-15-|------15-13-12----12-13----|-----------|-----------||
|-------------14----------|---------------14----------|-----------|-----------||
|-------------------------|---------------------------|-----------|-----------||
|-------------------------|---------------------------|-----------|-----------||
|-------------------------|---------------------------|-----------|-----------||
|
|  W                         +W                          W           +W
|-------------------------|---------------------------|-----------|-----------||
|-------------------------|---------------------------|-----------|-----------||
|-------------------------|---------------------------|-----------|-----------||
|-10----------------------|-(10)----------------------|-12--------|-(12)------||
|--8----------------------|--(8)----------------------|-10--------|-(10)------||
|-------------------------|---------------------------|-----------|-----------||
|
|  E  E  E  E  E  E  E  E     E   E  E  E  E  E  E  E    W            W
|-------------------------|---------------------------|-----------|-----------||
|-13-12----------------12-|--13--12----------------13-|-15--------|--15b17----||
|-------14-12----12-14----|---------14-12----12-14----|-----------|-----------||
|-------------15----------|---------------15----------|-----------|-----------||
|-------------------------|---------------------------|-----------|-----------||
|-------------------------|---------------------------|-----------|-----------||


  Gtrs III, IV
  W          W          W          Q.   Q.   Q
|----------|----------|----------|--------------|
|----------|----------|----------|--------------|
|----------|----------|----------|-5----4-------|
|----------|-5--------|-7--------|-----------5--|
|-7--------|----------|----------|--------------|
|----------|----------|----------|--------------|
|
| W          W          W          W
|----------|----------|----------|--------------|
|----------|----------|----------|--------------|
|----------|----------|----------|--------------|
|-5--------|-5--------|-2--------|--------------|
|-3--------|-2--------|-0--------|-2------------|
|----------|----------|----------|-0------------|


  W          W          W          W
|----------|----------|----------|------|
|----------|----------|----------|------|
|----------|----------|----------|------|
|----------|-7--------|----------|------|
|-8--------|----------|----------|------|
|----------|----------|-8--------|-7----|
|
| W          W          W          W
|----------|----------|----------|------|
|----------|----------|----------|------|
|----------|----------|----------|------|
|----------|----------|----------|------|
|-3--------|-3--------|-5--------|-5----|
|-1--------|-1--------|-3--------|-3----|


  W          W          W          Q.   Q.   Q
|----------|----------|----------|--------------|
|----------|----------|----------|--------------|
|----------|----------|----------|-5----4-------|
|----------|-5--------|-7--------|-----------5--|
|-7--------|----------|----------|--------------|
|----------|----------|----------|--------------|
|
| W          W          W          W
|----------|----------|----------|--------------|
|----------|----------|----------|--------------|
|----------|----------|----------|--------------|
|-5--------|-5--------|-2--------|--------------|
|-3--------|-2--------|-0--------|-2------------|
|----------|----------|----------|-0------------|


  W          W          W          W
|----------|----------|----------|------||
|----------|----------|----------|------||
|----------|----------|----------|-4----||
|----------|-7--------|-5--------|------||
|-8--------|----------|----------|------||
|----------|----------|----------|------||
|
| W          W          W          W
|----------|----------|----------|------||
|----------|----------|----------|------||
|----------|----------|----------|------||
|----------|----------|----------|------||
|-3--------|-3--------|-5--------|-7----||
|-1--------|-1--------|-3--------|-4----||


  E E E E E E E E    E  E E E E E E E   E E E E E E E E    E  E E E E E E E
|-8-7-5---8-7-5---|--8--7-5---8-7-5---|-8-7-5---8-7-5---|--8--7-5---8-7-5---|
|-------5-------5-|---------5-------5-|-------6-------6-|---------6-------6-|
|-----------------|-------------------|-----------------|-------------------|
|-----------------|-------------------|-----------------|-------------------|
|-----------------|-------------------|-----------------|-------------------|
|-----------------|-------------------|-----------------|-------------------|
|
| W                 +W                  W                 +W
|-----------------|-------------------|-----------------|-------------------|
|-----------------|-------------------|-----------------|-------------------|
|-----------------|-------------------|-----------------|-------------------|
|-----------------|-------------------|-----------------|-------------------|
|-7---------------|-(7)---------------|-3---------------|-(3)---------------|
|-5---------------|-(5)---------------|-1---------------|-(1)---------------|


   E E E E  E E E E    E  E E E  E E E E
|-10-8-7---10-8-7---|-10--8-7---10-8-7---|
|--------8--------8-|---------8--------8-|
|-------------------|--------------------|
|-------------------|--------------------|
|-------------------|--------------------|
|-------------------|--------------------|
|
|  W                  +W
|-------------------|--------------------|
|-------------------|--------------------|
|-------------------|--------------------|
|-------------------|--------------------|
|--5----------------|-(5)----------------|
|--3----------------|-(3)----------------|


   E  E E E  E  E E E    E  E  E  E  E  E  E  E
|-12-10-8---12-10-8---|-12----------12----------|
|---------8---------8-|----15-12-------15-12----|
|---------------------|----------13----------13-|
|---------------------|-------------------------|
|---------------------|-------------------------|
|---------------------|-------------------------|
|
|  W                     W
|---------------------|-------------------------|
|---------------------|-------------------------|
|---------------------|-------------------------|
|--5------------------|--9----------------------|
|--3------------------|--7----------------------|
|---------------------|-------------------------|


   E  E  E  E  E  E  E  E    E   E  E  E  E  E  E  E    E  E  E  E  E  E  E  E
|-12----------12----------|-12-----------12----------|-13----------13----------|
|----15-13-------15-13----|-----15-13-------15-13----|----13----------13-------|
|----------14----------14-|-----------14----------14-|-------14----------14----|
|-------------------------|--------------------------|----------15----------15-|
|-------------------------|--------------------------|-------------------------|
|-------------------------|--------------------------|-------------------------|
|
|  W                        +W                          W
|-------------------------|--------------------------|-------------------------|
|-------------------------|--------------------------|-------------------------|
|-------------------------|--------------------------|-------------------------|
|-------------------------|--------------------------|-------------------------|
|--7----------------------|-(7)----------------------|--3----------------------|
|--5----------------------|-(5)----------------------|--1----------------------|
|
| Gtr V
|  E  E  E  E  E  E  E  E    E   E  E  E  E  E  E  E    E  E  E  E  E  E  E  E
|--8--7--5-----8--7--5----|--8---7--5-----8--7--5----|--8-----------8----------|
|-----------5-----------5-|------------5-----------5-|----10----------10-------|
|-------------------------|--------------------------|-------10----------10----|
|-------------------------|--------------------------|----------10----------10-|
|-------------------------|--------------------------|-------------------------|
|-------------------------|--------------------------|-------------------------|


   E   E  E  E  E  E  E  E    E  E  E  E  E  E  E  E    E  E  E  E  E  E  E  E
|-13-----------13----------|-15----------15----------|----------19-20-19-20-22--||
|-----13----------13-------|----15----------15-------|-21----21-----------------||
|--------14----------14----|-------16----------16----|----21--------------------||
|-----------15----------15-|----------17----------17-|--------------------------||
|--------------------------|-------------------------|--------------------------||
|--------------------------|-------------------------|--------------------------||
|
| +W                          W                         W
|--------------------------|-------------------------|--------------------------||
|--------------------------|-------------------------|--------------------------||
|--------------------------|-------------------------|--------------------------||
|--------------------------|-------------------------|--------------------------||
|-(3)----------------------|--5----------------------|--7-----------------------||
|-(1)----------------------|--3----------------------|--4-----------------------||
|
|  E   E  E  E  E  E  E  E    E  E  E  E  E  E  E  E    E  E  E  E  E  E  E  E
|--8------------8----------|-10----------10----------|----------------------19--||
|-----10----------10-------|----12----------12-------|----------21-22-21-22-----||
|--------10----------10----|-------12----------12----|-21----21-----------------||
|-----------10----------10-|----------12----------12-|----21--------------------||
|--------------------------|-------------------------|--------------------------||
|--------------------------|-------------------------|--------------------------||


 6/4
   E  E  E    E    E  E  E    E    E  E  E    E
|-12--------------12--------------12---------12---|
|----12-13---15------12-13---15------13-15--------|
|-------------------------------------------------|
|-------------------------------------------------|
|-------------------------------------------------|
|-------------------------------------------------|
|
|  PM----------------------------------------------
|  E  E  S S  S S  E  E  S S  S S  E  E  S S  S S
|-------------------------------------------------|
|-------------------------------------------------|
|-------------------------------------------------|
|--2--2--2-2--2-2--2--2--2-2--2-2--2--2--2-2--2-2-|
|--0--0--0-0--0-0--0--0--0-0--0-0--0--0--0-0--0-0-|
|-------------------------------------------------|
|
|  E  E  E    E    E  E  E    E    E  E  E    E
|-------------------------------------------------|
|-13---------12---13---------12---13----12---13---|
|----12-14-----------12-14-----------14-----------|
|-------------------------------------------------|
|-------------------------------------------------|
|-------------------------------------------------|


   E  E  E    E    E  E  E    E    E  E  E    E
|-14--------------14---------14---15----14---15----|
|----14-15---17------15-17-----------17------------|
|--------------------------------------------------|
|--------------------------------------------------|
|--------------------------------------------------|
|--------------------------------------------------|
|
|-----------------------------------------------|
|  E  E  S S  S S  E  E  S S  S S  E  E  S S  S S
|--------------------------------------------------|
|--------------------------------------------------|
|--------------------------------------------------|
|--4--4--4-4--4-4--4--4--4-4--4-5--5--5--5-5--5-5--|
|--2--2--2-2--2-2--2--2--2-2--2-3--3--3--3-3--3-3--|
|--------------------------------------------------|
|
|  E  E  E    E    E  E  E    E    E  E  E    E
|--------------------------------------------------|
|-15---------13---15----13---15---17----15---17----|
|----14-16-----------16--------------17------------|
|--------------------------------------------------|
|--------------------------------------------------|
|--------------------------------------------------|


   E  E  E    E    E  E  E    E    E  E  E    E
|-17-19-20---23---24-23-24---23---24-23-24---23---|
|-------------------------------------------------|
|-------------------------------------------------|
|-------------------------------------------------|
|-------------------------------------------------|
|-------------------------------------------------|
|
|  PM----------------------------------------------
|  E  E  S S  S S  E  E  S S  S S  E  E  S S  S S
|-------------------------------------------------|
|-------------------------------------------------|
|-------------------------------------------------|
|--4--4--4-4--4-4--4--4--4-4--4-4--4--4--4-4--4-4-|
|--2--2--2-2--2-2--2--2--2-2--2-2--2--2--2-2--2-2-|
|-------------------------------------------------|
|
|  E  E  E    E    E  E  E    E    E  E  E    E
|------------19---20-19-20---19---20-19-20---19---|
|-19-20-22----------------------------------------|
|-------------------------------------------------|
|-------------------------------------------------|
|-------------------------------------------------|
|-------------------------------------------------|


   E  E  E    E    E  E  E    E    E  E  E    E
|-24-23-24---23---24-23-24---23---26-23-26---23---||
|-------------------------------------------------||
|-------------------------------------------------||
|-------------------------------------------------||
|-------------------------------------------------||
|-------------------------------------------------||
|
|-----------------------------------------------|
|  E  E  S S  S S  E  E  S S  S S  E  E  S S  S S
|-------------------------------------------------||
|-------------------------------------------------||
|-------------------------------------------------||
|--4--4--4-4--4-4--4--4--4-4--4-4--4--4--4-4--4-4-||
|--2--2--2-2--2-2--2--2--2-2--2-2--2--2--2-2--2-2-||
|-------------------------------------------------||
|
|  E  E  E    E    E  E  E    E    E  E  E    E
|-20-19-20---19---20-19-20---19---23-19-23---19---||
|-------------------------------------------------||
|-------------------------------------------------||
|-------------------------------------------------||
|-------------------------------------------------||
|-------------------------------------------------||


  E E E    E   E E E    E   E E  E   E
|-7------------7------------7--------7---|
|---7-8---10-----7-8---10-----8-10-------|
|----------------------------------------|
|----------------------------------------|
|----------------------------------------|
|----------------------------------------|
|
| PM--------------------------------------
| E E S S  S S E E S S  S S E E  S S S S
|----------------------------------------|
|----------------------------------------|
|----------------------------------------|
|-2-2-2-2--2-2-2-2-2-2--2-2-2-2--2-2-2-2-|
|-0-0-0-0--0-0-0-0-0-0--0-0-0-0--0-0-0-0-|
|----------------------------------------|
|
| E E E    E   E E E    E   E E  E   E
|----------------------------------------|
|-8------------8------------8--------8---|
|---8-9---11-----8-9---11-----9-11-------|
|----------------------------------------|
|----------------------------------------|
|----------------------------------------|


   E E  E    E    E  E  E    E    E  E  E    E
|--9--------------9----------9---10-----9---10-----|
|----9-10---12------10-12-----------12-------------|
|--------------------------------------------------|
|--------------------------------------------------|
|--------------------------------------------------|
|--------------------------------------------------|
|
|----------------------------------------------|
|  E E  S S  S S  E  E  S S  S S  E  E  S S  S S
|--------------------------------------------------|
|--------------------------------------------------|
|--------------------------------------------------|
|--4-4--4-4--4-4--4--4--4-4--4-5--5--5--5-5--5-5---|
|--2-2--2-2--2-2--2--2--2-2--2-3--3--3--3-3--3-3---|
|--------------------------------------------------|
|
|  E E  E    E    E  E  E    E    E  E  E    E
|--------------------------------------------------|
|-10-------------10---------10---12---------12-----|
|----9-11---12------11-12-----------12-14----------|
|--------------------------------------------------|
|--------------------------------------------------|
|--------------------------------------------------|


   E  E  E    E    E  E  E    E    E  E  E    E
|------------18---19-18-19---18---19-18-19---18---|
|-17-19-20----------------------------------------|
|-------------------------------------------------|
|-------------------------------------------------|
|-------------------------------------------------|
|-------------------------------------------------|
|
|  PM----------------------------------------------
|  E  E  S S  S S  E  E  S S  S S  E  E  S S  S S
|-------------------------------------------------|
|-------------------------------------------------|
|-------------------------------------------------|
|-------------------------------------------------|
|--4--4--4-4--4-4--4--4--4-4--4-4--4--4--4-4--4-4-|
|--2--2--2-2--2-2--2--2--2-2--2-2--2--2--2-2--2-2-|
|
|  E  E  E    E    E  E  E    E    E  E  E    E
|------------14---15-14-15---14---15-14-15---14---|
|-14-15-17----------------------------------------|
|-------------------------------------------------|
|-------------------------------------------------|
|-------------------------------------------------|
|-------------------------------------------------|


   E  E  E    E    E  E  E    E    E  E  E    E
|-19-18-19---18---19-18-19---18---21-18-21---18-----||
|---------------------------------------------------||
|---------------------------------------------------||
|---------------------------------------------------||
|---------------------------------------------------||
|---------------------------------------------------||
|
|-----------------------------------------------|
|  E  E  S S  S S  E  E  S S  S S  E  E  S S  S S
|---------------------------------------------------||
|---------------------------------------------------||
|---------------------------------------------------||
|---------------------------------------------------||
|--4--4--4-4--4-4--4--4--4-4--4-4--4--4--4-4--4-4---||
|--2--2--2-2--2-2--2--2--2-2--2-2--2--2--2-2--2-2---||
|
|  E  E  E    E    E  E  E    E    E  E  E    E
|-15-14-15---14---15-14-15---14---17-14-17---14-----||
|---------------------------------------------------||
|---------------------------------------------------||
|---------------------------------------------------||
|---------------------------------------------------||
|---------------------------------------------------||


  E E E    E   E E E   E   E E E   E
|-7---7--------------------------------|
|---7-----10---8-7---------7-----------|
|------------------9---7-----9-7---6---|
|--------------------------------------|
|--------------------------------------|
|--------------------------------------|
|
| PM------------------------------------
| E E S S  S S E E S S S S E E S S S S
|--------------------------------------|
|--------------------------------------|
|--------------------------------------|
|-4-4-4-4--4-4-4-4-4-4-4-4-4-4-4-4-4-4-|
|-2-2-2-2--2-2-2-2-2-2-2-2-2-2-2-2-2-2-|
|--------------------------------------|


  E E  E   E   E  E E   E   E E E   E
|-----10---9---7-------------------------|
|---7------------10-8---7---8-7----------|
|-7-----------------------------9---7----|
|----------------------------------------|
|----------------------------------------|
|----------------------------------------|
|
|-------------------------------------|
| E E  S S S S E  E S S S S E E S S S S
|----------------------------------------|
|----------------------------------------|
|----------------------------------------|
|-4-4--4-4-4-4-4--4-4-4-4-4-4-4-4-4-4-4--|
|-2-2--2-2-2-2-2--2-2-2-2-2-2-2-2-2-2-2--|
|----------------------------------------|


  E E E   E   E E E   E   E E E   E     E E E   E   E E E   E   E E E   E
|-----------------9---7---6-----------|--------------------------------------|
|-----8---7-----8-----------8-7-------|-----------------7---8---7------------|
|-6-----------9-------------------9---|-9-6-----6-----6-----------9-7---6----|
|-------------------------------------|-----9-------8------------------------|
|---9---------------------------------|--------------------------------------|
|-------------------------------------|--------------------------------------|
|
| PM----------------------------------------------------------------------|
| E E S S S S E E S S S S E E S S S S   E E S S S S E E S S S S E E S S S S
|-------------------------------------|--------------------------------------|
|-------------------------------------|--------------------------------------|
|-------------------------------------|--------------------------------------|
|-------------2-2-2-2-2-2-------------|--------------------------------------|
|-4-4-4-4-4-4-------------------------|-------------4-4-4-4-4-4-4-4-4-4-4-4--|
|-------------------------3-3-3-3-3-3-|-3-3-3-3-3-3-2-2-2-2-2-2-2-2-2-2-2-2--|


  E E E   E   E E E   E    E E E    E
|----------------------------8-7--------|
|-----7-------7---7---8---10-------10---|
|-7-9-----7-----7-----------------------|
|---------------------------------------|
|---------------------------------------|
|---------------------------------------|
|
| PM-------------------------------------
| E E S S S S E E S S S S  E E S S  S S
|---------------------------------------|
|---------------------------------------|
|---------------------------------------|
|-4-4-4-4-4-4-4-4-4-4-4-4--9-9-9-9--9-9-|
|-2-2-2-2-2-2-2-2-2-2-2-2--6-6-6-6--6-6-|
|---------------------------------------|


   E  E  E    E    E  E  E    E    E  E  E    E
|--------------------------------------------------|
|------------13---12-------------------------------|
|-14-13-14-----------14-12---11---12-11------------|
|---------------------------------------14---12----|
|--------------------------------------------------|
|--------------------------------------------------|
|
|-----------------------------------------------|
|  E  E  S S  S S  E  E  S S  S S  E  E  S S  S S
|--------------------------------------------------|
|--------------------------------------------------|
|--------------------------------------------------|
|--9--9--9-9--9-9--9--9--9-9--9-9--9--9--9-9--9-9--|
|--6--6--6-6--6-6--7--7--7-7--7-7--7--7--7-7--7-7--|
|--------------------------------------------------|


   E  E  E    E    E  E  E    E    E  E  E    E
|-------------------------------------------------|
|------------13---12------------------------------|
|-14-13-14-----------14-12---11---12-11-----------|
|---------------------------------------14---12---|
|-------------------------------------------------|
|-------------------------------------------------|
|
|  PM----------------------------------------------
|  E  E  S S  S S  E  E  S S  S S  E  E  S S  S S
|-------------------------------------------------|
|-------------------------------------------------|
|-------------------------------------------------|
|--9--9----------------------------9--9--9-9--9-9-|
|--7--7--9-9--9-9--9--9--9-9--9-9--7--7--7-7--7-7-|
|--------7-7--7-7--7--7--7-7--7-7-----------------|


   E  E  E     E     E  E  E     E     E  E  E     E
|--------------------------------------------------------||
|-------------------------------11-----------------------||
|-------11-------------11-12----------12-11-------11-----||
|-14-11-------11----14----------------------14-----------||
|--------------------------------------------------------||
|--------------------------------------------------------||
|
|----------------------------------------------------|
|  E  E  S  S  S  S  E  E  S  S  S  S  E  E  S  S  S  S
|--------------------------------------------------------||
|--------------------------------------------------------||
|--------------------------------------------------------||
|-11-11-11-11-11-11-11-11-11-11-11-11-11-11-11-11-11-11--||
|--9--9--9--9--9--9--9--9--9--9--9--9--9--9--9--9--9--9--||
|--------------------------------------------------------||


   E  E  E    E    E  E  E    E    E  E  E    E
|--7-----7----------------------------------------|
|-----7------10----8--7------------7--------------|
|------------------------9----7-------9--7----6---|
|-------------------------------------------------|
|-------------------------------------------------|
|-------------------------------------------------|
|
|  PM----------------------------------------------
|  E  E  S S  S S  E  E  S S  S S  E  E  S S  S S
|-------------------------------------------------|
|-------------------------------------------------|
|-------------------------------------------------|
|--4--4--4-4--4-4--4--4--4-4--4-4--4--4--4-4--4-4-|
|--2--2--2-2--2-2--2--2--2-2--2-2--2--2--2-2--2-2-|
|-------------------------------------------------|
|
| Gtr V
|  E  E  E    E    E  E  E    E    E  E  E    E
|-------------------------------------------------|
|-15----15---14-----------------------------------|
|----16-----------16-14-----------14--------------|
|-----------------------17---16------17-16---14---|
|-------------------------------------------------|
|-------------------------------------------------|


   E  E  E    E    E  E  E    E    E  E  E    E
|-------10----9----7-------------------------------|
|-----7--------------10--8----7----8--7------------|
|--7-------------------------------------9----7----|
|--------------------------------------------------|
|--------------------------------------------------|
|--------------------------------------------------|
|
|-----------------------------------------------|
|  E  E  S S  S S  E  E  S S  S S  E  E  S S  S S
|--------------------------------------------------|
|--------------------------------------------------|
|--------------------------------------------------|
|--4--4--4-4--4-4--4--4--4-4--4-4--4--4--4-4--4-4--|
|--2--2--2-2--2-2--2--2--2-2--2-2--2--2--2-2--2-2--|
|--------------------------------------------------|
|
|  E  E  E    E    E  E  E    E    E  E  E    E
|-------14-----------------------------------------|
|------------17---15-14----------------------------|
|----16-----------------16---14---16-14------------|
|-16------------------------------------17---16----|
|--------------------------------------------------|
|--------------------------------------------------|


   E  E  E    E    E  E  E    E    E  E  E    E
|------------------------9----7----6--------------|
|--------8----7-------8---------------8--7--------|
|--6---------------9--------------------------9---|
|-------------------------------------------------|
|-----9-------------------------------------------|
|-------------------------------------------------|
|
|  PM----------------------------------------------
|  E  E  S S  S S  E  E  S S  S S  E  E  S S  S S
|-------------------------------------------------|
|-------------------------------------------------|
|-------------------------------------------------|
|------------------2--2--2-2--2-2-----------------|
|--4--4--4-4--4-4---------------------------------|
|----------------------------------3--3--3-3--3-3-|
|
|  E  E  E    E    E  E  E    E    E  E  E    E
|-------------------------------------------------|
|-----------------------17---15---14--------------|
|-------16---15------16--------------16-15--------|
|-14--------------17-------------------------17---|
|----16-------------------------------------------|
|-------------------------------------------------|


   E  E  E    E    E  E  E    E    E  E  E    E
|--------------------------------------------------|
|------------------------7----8----7---------------|
|--9--6-------6-------6---------------9--7----6----|
|--------9---------8-------------------------------|
|--------------------------------------------------|
|--------------------------------------------------|
|
|-----------------------------------------------|
|  E  E  S S  S S  E  E  S S  S S  E  E  S S  S S
|--------------------------------------------------|
|--------------------------------------------------|
|--------------------------------------------------|
|--------------------------------------------------|
|------------------4--4--4-4--4-4--4--4--4-4--4-4--|
|--3--3--3-3--3-3--2--2--2-2--2-2--2--2--2-2--2-2--|
|
|  E  E  E    E    E  E  E    E    E  E  E    E
|--------------------------------------------------|
|--------------------------------------------------|
|-----------------------15---16---15---------------|
|-17-14------14------14--------------17-16---14----|
|-------16--------16-------------------------------|
|--------------------------------------------------|


   E  E  E    E    E  E  E    E    E  E  E    E
|-------------------------------------8--7--------|
|--------7---------7-----7----8---10---------10---|
|--7--9-------7-------7---------------------------|
|-------------------------------------------------|
|-------------------------------------------------|
|-------------------------------------------------|
|
|  PM----------------------------------------------
|  E  E  S S  S S  E  E  S S  S S  E  E  S S  S S
|-------------------------------------------------|
|-------------------------------------------------|
|-------------------------------------------------|
|--4--4--4-4--4-4--4--4--4-4--4-4--9--9--9-9--9-9-|
|--2--2--2-2--2-2--2--2--2-2--2-2--6--6--6-6--6-6-|
|-------------------------------------------------|
|
|  E  E  E    E    E  E  E    E    E  E  E    E
|-------------------------------------------------|
|------------------------------------17-16--------|
|-------14--------14----14---16---17---------17---|
|-16-17------16------16---------------------------|
|-------------------------------------------------|
|-------------------------------------------------|


   E  E  E    E    E  E  E    E    E  E  E    E
|------------------7-------------------------------|
|--8--7--------------10--8----7----8---------------|
|--------9----8----------------------10--7---------|
|---------------------------------------------9----|
|--------------------------------------------------|
|--------------------------------------------------|
|
|-----------------------------------------------|
|  E  E  S S  S S  E  E  S S  S S  E  E  S S  S S
|--------------------------------------------------|
|--------------------------------------------------|
|--------------------------------------------------|
|--9--9--9-9--9-9--9--9--9-9--9-9--9--9--9-9--9-9--|
|--6--6--6-6--6-6--7--7--7-7--7-7--7--7--7-7--7-7--|
|--------------------------------------------------|
|
|  E  E  E    E    E  E  E    E    E  E  E    E
|--------------------------------------------------|
|-----------------17--------------------15---17----|
|-16-14-16---17------17-16---14---16-17------------|
|--------------------------------------------------|
|--------------------------------------------------|
|--------------------------------------------------|


  Gtrs III, V
   W.                       +W            H
|-13---------------------|-(13)------------------|
|------------------------|-----------------------|
|------------------------|-----------------------|
|------------------------|-----------------------|
|-10---------------------|-(10)------------------|
|------------------------|-----------------------|
|  W.                       +W            H
|
|  |-3--| |-3-| |-3-|        |-3--| |-3-|
|  Q  Q Q Q Q Q Q Q Q        Q  Q Q Q Q Q H
|------------------------|-----------------------|
|------------------------|-----------------------|
|------------------------|-----------------------|
|------------------------|-----------------------|
|--5--5-5-5-5-5-5-5-5----|---5--5-5-5-5-5-2------|
|--3--3-3-3-3-3-3-3-3----|---3--3-3-3-3-3-0------|
|
| Gtr I
|  W                         W
|------------------------|-----------------------|
|------------------------|-----------------------|
|------------------------|-----------------------|
|------------------------|-----------------------|
|------------------------|-----------------------|
|------------------------|-----------------------|


   W                         Q      Q
|-------------------------------------------||
|-------------------------------------------||
|---------------------------17-----19-------||
|---------------------------19-----21-------||
|-------------------------------------------||
|-------------------------------------------||
|  W                         Q      Q
|
| +W.
|-------------------------------------------||
|-------------------------------------------||
|-------------------------------------------||
|-------------------------------------------||
|-(2)---------------------------------------||
|-(0)---------------------------------------||
|
|  |-3--| |-3-| |-3-| |-3-|  |-3-|  |-3-|
|  E  E E E E E E E E E E E  E E E  E E E
|----------------------------0---0--4-0-4---||
|---------------------0---0----0------------||
|---------------1---1---1-------------------||
|---------2---2---2-------------------------||
|--2----2---2-------------------------------||
|-----4-------------------------------------||


  Q=82
 4/4
   Q.         S  S  E.  E  S  S     +S
|------------------17-------------------|
|-15b17------17-17-17--20-15-17b18r(17)-|
|-16b17------17-17-----19-16-17b19r(17)-|
|---------------------------------------|
|---------------------------------------|
|---------------------------------------|
|  Q.         S  S  E.  E  S  S     +S
|
|  H                H
|---------------------------------------|
|---------------------------------------|
|---------------------------------------|
|---------------------------------------|
|--3----------------5-------------------|
|--1----------------3-------------------|
|
|  E.   S E.     S  E.  E  E         S
|--5----0-0-----------------------------|
|--6----1-1------3--3---1--0---------0--|
|--9----2-2------4--4---0--0---------0--|
|-10----3-3------5--5---0--0---------0--|
|---------------------------------------|
|---------------------------------------|


   +H             Q      Q          Q.              E  E.      E.      E
|--------------------------------|-----------------17-19------20------22-|
|-(17)------------------15-------|-15b17-----------18-20------22------20-|
|-(17)-----------17-----16-------|-16b17---------------------------------|
|----------------19--------------|---------------------------------------|
|--------------------------------|---------------------------------------|
|--------------------------------|---------------------------------------|
|  +H             Q      Q          Q.              E  E.      E.      E
|
|   W                               H                  H
|--------------------------------|---------------------------------------|
|--------------------------------|---------------------------------------|
|--------------------------------|---------------------------------------|
|--------------------------------|---------------------------------------|
|---7----------------------------|--3------------------5-----------------|
|---5----------------------------|--1------------------3-----------------|
|
|   S  E S S E S  S E S  S S S S    S    S S S S S  E  S  S S  S  S S  E
|---------------------7--3-------|------------------1--7--3----8--3---10-|
|---0--1-1-1-0-0--0-1------3-1-0-|---------------2----------3-------3----|
|---0--2-2-2-0-0--0-2------------|--2----------3-------------------------|
|---0--2-2-2-0-0--0-2------------|-----------3---------------------------|
|--------------------------------|-------3-3-----------------------------|
|--------------------------------|---------------------------------------|


   W
|-22b24--------------------------------------------------|
|-20b22--------------------------------------------------|
|--------------------------------------------------------|
|--------------------------------------------------------|
|--------------------------------------------------------|
|--------------------------------------------------------|
|  W
|
|  W
|--------------------------------------------------------|
|--------------------------------------------------------|
|--------------------------------------------------------|
|--------------------------------------------------------|
|--7-----------------------------------------------------|
|--5-----------------------------------------------------|
|
|  |-----6------|  |----6----|  |----6----|  |----6----|
|  S    S S S S S  S S S S S S  S S S S S S  S S S S S S
|-12----8-5-0-8-5-12-8-5-0-8-5-12-8-5-0-8-5-12-8-5-0-8-5-|
|--------------------------------------------------------|
|--------------------------------------------------------|
|--------------------------------------------------------|
|--------------------------------------------------------|
|--------------------------------------------------------|


   +W
|-(22)-----------------------------------------------------||
|-(20)-----------------------------------------------------||
|----------------------------------------------------------||
|----------------------------------------------------------||
|----------------------------------------------------------||
|----------------------------------------------------------||
|  +W
|
|  +H                          Q             Q
|----------------------------------------------------------||
|----------------------------------------------------------||
|----------------------------------------------------------||
|----------------------------------------------------------||
|--(7)-------------------------x/------------x\------------||
|--(5)-------------------------x/------------x\------------||
|
|   |----6-----|  |----6----|  |----6-----|  |----6-----|
|   S  S S S S S  S S S S S S  S  S S S S S  S  S S S S S
|--12--8-5-0-8-5-12-8-5-0-8-5-12--8-5-0-8-5-12--8-5-0-8-5--||
|----------------------------------------------------------||
|----------------------------------------------------------||
|----------------------------------------------------------||
|----------------------------------------------------------||
|----------------------------------------------------------||


  Gtrs III, IV
  Q  S S S S Q  S S S S   H    Q  E E   Q  S S S S H      H    H
|-----------------------|-------------|-----------------|-----------|
|-----------------------|-------------|-----------------|-----------|
|-----------------------|-------------|-----------------|-----------|
|-2---------------------|------5------|-----------------|-5----9----|
|-0--0-------3----------|-5----3--2---|-3----------5----|-3----7----|
|------3-1-0-1--1-0-1-2-|-3---------3-|-1--1-0-1-2-3----|-----------|


  Q  S S S S H      H    H      W          H    H
|-----------------|-----------|----------|-----------||
|-----------------|-----------|----------|-----------||
|-----------------|-----------|----------|-----------||
|-----------------|-----------|----------|-----------||
|-3----------5----|-7----7----|-3--------|-5----7----||
|-1--1-0-1-2-3----|-4----5----|-1--------|-3----4----||


  Q  S S S S Q  S S S S   H    Q  E E   Q  S S S S H      Q  +S  E S H
|-----------------------|-------------|-----------------|-----------------|
|-----------------------|-------------|-----------------|-----------------|
|-----------------------|-------------|-----------------|-----------------|
|-2---------------------|------5------|-----------------|-5--(5)----------|
|-0--0-------3----------|-5----3--2---|-3----------5----|-3--(3)-3-2-1----|
|------3-1-0-1--1-0-1-2-|-3---------3-|-1--1-0-1-2-3----|-----------------|


  H    Q  Q    H    H      W          H    H
|------------|-----------|----------|-----------||
|------------|-----------|----------|-----------||
|------------|-----------|----------|-----------||
|-3----------|------2----|----------|-----------||
|-0----5--3--|-2----0----|-3--------|-5----7----||
|------3--1--|-0---------|-1--------|-3----4----||


  Q  S S S S Q  S S S S   H    Q  E E   Q  S S S S H      Q  +S  E S H
|-----------------------|-------------|-----------------|-----------------|
|-----------------------|-------------|-----------------|-----------------|
|-----------------------|-------------|-----------------|-----------------|
|-2---------------------|------5------|-----------------|-5--(5)----------|
|-0--0-------3----------|-5----3--2---|-3----------5----|-3--(3)-3-2-1----|
|------3-1-0-1--1-0-1-2-|-3---------3-|-1--1-0-1-2-3----|-----------------|


  H    Q  Q    H    H      W          H    H      Wx2
|------------|-----------|----------|-----------|--------*|
|------------|-----------|----------|-----------|--------*|
|------------|-----------|----------|-----------|--------*|
|-3----------|------2----|----------|-----------|--------*|
|-0----5--3--|-2----0----|-3--------|-5----7----|--------*|
|------3--1--|-0---------|-1--------|-3----4----|--------*|



Duration Legend
---------------
W - whole; H - half; Q - quarter; E - 8th; S - 16th; T - 32nd; X - 64th; a - acciaccatura
+ - note tied to previous; . - note dotted; .. - note double dotted
Uncapitalized letters represent notes that are staccato (1/2 duration)
Irregular groupings are notated above the duration line
Duration letters will always appear directly above the note/fret number it represents the
duration for.  Duration letters with no fret number below them represent rests.  Multi-
bar rests are notated in the form Wxn, where n is the number of bars to rest for.  Low
melody durations appear below the staff

Tablature Legend
----------------
 h   - hammer-on
 p   - pull-off
 b   - bend
 pb  - pre-bend
 r   - bend release (if no number after the r, then release immediately)
 /\  - slide into or out of (from/to "nowhere")
 s   - legato slide
 S   - shift slide
 - natural harmonic
[n]  - artificial harmonic
n(n) - tapped harmonic
 ~   - vibrato
 tr  - trill
 T   - tap
 TP  - trem. picking
 PM  - palm muting
\n/  - tremolo bar dip; n = amount to dip
 \n  - tremolo bar down
 n/  - tremolo bar up
/n\  - tremolo bar inverted dip
 =   - hold bend; also acts as connecting device for hammers/pulls
 <> - volume swell (louder/softer)
 x   - on rhythm slash represents muted slash
 o   - on rhythm slash represents single note slash

Misc Legend
-----------
 |  - bar
||  - double bar
||o - repeat start
o|| - repeat end
*|  - double bar (ending)
 :  - bar (freetime)
 $  - Segno
 &  - Coda
Tempo markers -  = BPM(8/16=s8/s16), where s8 = swing 8ths, s16 = swing 16ths


            
            
Suggest correction
Creating personal tab
Creating personal tab
You can edit any tab online and save it as your Personal.

You can edit, replace or remove any tab part or add personal notes – all changes will be seen only by you.

Personal tabs can be accessed anytime from any device, even offline.
Learn more »