Oops, an error
Loading. Please wait.

Endless Rain tab

version 5
version 5
by X Japan
2,327 views 1 this week
1 commentread comment
1 2 3 4 5
3 more votes to show rating
add to favorites
×
Save as Personal and add changes to this tab that will be seen only by you. Learn more ›
×
You can save this tab as Personal to edit and correct it or add notes. All changes will be seen only by you. Learn more »
launch autoscroll
font size
0
reset
how to read this tab
guitar tuner
backing track
0:00
0:00
edit
Autoscroll
slow
fast
+/-
esc
set tempo
stop
#----------------------------------PLEASE NOTE---------------------------------#
#This file is the author's own work and represents their interpretation of the #
#song. You may only use this file for private study, scholarship, or research. #
#------------------------------------------------------------------------------#

ENDLESS RAIN
As recorded by X Japan


        



Gtr I (E A D G B E) - 'Distortion'
Gtr II (E A D G B E) - 'Acoustic'

  Q=72
 4/4
  Gtr I
  W          W          W          W
|----------|----------|----------|------|
|----------|----------|----------|------|
|----------|----------|----------|------|
|----------|----------|----------|------|
|----------|----------|----------|------|
|----------|----------|----------|------|


  W          W          W          W
|----------|----------|----------|------|
|----------|----------|----------|------|
|----------|----------|----------|------|
|----------|----------|----------|------|
|----------|----------|----------|------|
|----------|----------|----------|------|


  W          W          W          W
|----------|----------|----------|------|
|----------|----------|----------|------|
|----------|----------|----------|------|
|----------|----------|----------|------|
|----------|----------|----------|------|
|----------|----------|----------|------|


  W          W          W          W
|----------|----------|----------|------|
|----------|----------|----------|------|
|----------|----------|----------|------|
|----------|----------|----------|------|
|----------|----------|----------|------|
|----------|----------|----------|------|


  W          W          W          W
|----------|----------|----------|------|
|----------|----------|----------|------|
|----------|----------|----------|------|
|----------|----------|----------|------|
|----------|----------|----------|------|
|----------|----------|----------|------|


  W          W          W          W
|----------|----------|----------|------|
|----------|----------|----------|------|
|----------|----------|----------|------|
|----------|----------|----------|------|
|----------|----------|----------|------|
|----------|----------|----------|------|


  Gtr II
  W          W          W          E E E E E E E E
|----------|----------|----------|-----------------|
|----------|----------|----------|-------2-4-2-----|
|----------|----------|----------|-----------------|
|----------|----------|----------|---1-4-------4---|
|----------|----------|----------|-2-------------6-|
|----------|----------|----------|-----------------|


  E E E E E E E E   E E E E E E E E   E E E E E E E E   E E E E E E E E
|-----------------|-----------------|-----------------|-----------------|
|---------7-------|---------4-------|-------5-7-------|-------2-4-2-----|
|-----------------|-------4---4-----|-----4-----6-----|-----------------|
|-------8---8-----|-----6-------6---|---6---------8---|-----4-------4---|
|-----9-------9---|---6-----------6-|-7-------------9-|---6-----------6-|
|-7-9-----------9-|-4---------------|-----------------|-7---------------|


  E E E E E E E E   E E E E E E E E   E E E E E E E E   E E E E E E E E
|-----------------|---------------0-|-------2---------|-------0-------2-|
|---------7-------|-------------0---|-----2---2-------|-----0-------2---|
|-----------------|-------4---1-----|---4-------3-----|---1-------3-----|
|-------8---8-----|-----6---2-------|-4-----------4---|-2-------4-------|
|-----9-------9---|---6-------------|---------------4-|-----------------|
|-7-9-----------9-|-4---------------|-----------------|-----------------|


  E E E E E E E E   E E E E E E E E   E E E E E E E E   E E E E E E E E
|-----------------|-------0-------2-|-----------------|-----------------|
|-------4-------4-|-----0-------2---|-------5-4-------|-----------------|
|-----4-------3---|---1-------3-----|-----4-----4-----|-------4-------3-|
|---4-------5-----|-2-------4-------|---4---------4---|-----4-------4---|
|-2-------6-------|-----------------|-2-------------6-|---6-------4-----|
|-----------------|-----------------|-----------------|-7-------6-------|


  E E E E E E E E   E E E E E E E E   E E E E E E E E   E E E E E E E E
|-----------------|-----------------|-----------------|-----------------|
|---------------0-|-------5-------4-|-------5---------|-----------------|
|-------4-----1---|-----4-------4---|-----4---------3-|-------4-------3-|
|-----6-----1-----|-2-4-------4-----|---4---------4---|---1-4-------4---|
|---6-------------|---------6-------|-4---------4-----|-2---------4-----|
|-4-------2-------|-----------------|---------2-------|---------6-------|


  E E E E E E E E   E E E E E E E E   E E E E E E E E   E E E E E E E E
|-----------------|-----------------|-----------------|-----------------|
|---------------0-|-------5-------4-|-------5---------|-------2-4-2-----|
|-------4-----1---|-----4-------4---|-----4---------3-|-----------------|
|-----6-----1-----|-2-4-------4-----|---4---------4---|---1-4-------4---|
|---6-------------|---------6-------|-4---------4-----|-2-------------6-|
|-4-------2-------|-----------------|---------2-------|-----------------|


  E E E E E E E E   E E E E E E E E   E E E E E E E E   E E E E E E E E
|-----------------|-----------------|-----------------|-----------------|
|---------7-------|---------4-------|-------5-7-------|-------2-4-2-----|
|-----------------|-------4---4-----|-----4-----6-----|-----------------|
|-------8---8-----|-----6-------6---|---6---------8---|-----4-------4---|
|-----9-------9---|---6-----------6-|-7-------------9-|---6-----------6-|
|-7-9-----------9-|-4---------------|-----------------|-7---------------|


  E E E E E E E E   E E E E E E E E   E E E E E E E E   E E E E E E E E
|-----------------|---------------0-|-------2---------|-------0-------2-|
|---------7-------|-------------0---|-----2---2-------|-----0-------2---|
|-----------------|-------4---1-----|---4-------3-----|---1-------3-----|
|-------8---8-----|-----6---2-------|-4-----------4---|-2-------4-------|
|-----9-------9---|---6-------------|---------------4-|-----------------|
|-7-9-----------9-|-4---------------|-----------------|-----------------|


  E E E E E E E E   E E E E E E E E   E E E E E E E E   E E E E E E E E
|-----------------|-------0-------2-|-----------------|-----------------|
|-------4-------4-|-----0-------2---|-------5-4-------|-----------------|
|-----4-------3---|---1-------3-----|-----4-----4-----|-------4-------3-|
|---4-------5-----|-2-------4-------|---4---------4---|-----4-------4---|
|-2-------6-------|-----------------|-2-------------6-|---6-------4-----|
|-----------------|-----------------|-----------------|-7-------6-------|


  E E E E E E E E   E E E E E E E E   E E E E E E E E   E E E E E E E E
|-----------------|-----------------|-----------------|-----------------|
|---------------0-|-------5-------4-|-------5---------|-----------------|
|-------4-----1---|-----4-------4---|-----4---------3-|-------4-------3-|
|-----6-----1-----|-2-4-------4-----|---4---------4---|---1-4-------4---|
|---6-------------|---------6-------|-4---------4-----|-2---------4-----|
|-4-------2-------|-----------------|---------2-------|---------6-------|


  E E E E E E E E   E E E E E E E E   E E E E E E E E   E E E E E E E E
|-----------------|-----------------|-----------------|-3-3-3-3-3-3-3-3-|
|---------------0-|-------5-------4-|-------5---------|-3-3-3-3-3-3-3-3-|
|-------4-----1---|-----4-------4---|-----4---------3-|-4-4-4-4-4-4-4-4-|
|-----6-----1-----|-2-4-------4-----|---4---------4---|-5-5-5-5-5-5-5-5-|
|---6-------------|---------6-------|-4---------4-----|-3-3-3-3-3-3-3-3-|
|-4-------2-------|-----------------|---------2-------|-3-3-3-3-3-3-3-3-|


  Gtr I
  W                 W                 H       Q   E E   Q  Q  E E E E
|-----------------|-----------------|-----------------|----5--5-------|
|-----------------|-----------------|---------------2-|-3-------7-8-7-|
|-----------------|-----------------|-------------4---|---------------|
|-----------------|-----------------|-----------------|---------------|
|-----------------|-----------------|-----------------|---------------|
|-----------------|-----------------|-----------------|---------------|
|
| Gtr II
| E E E E E E E E   E E E E E E E E   E E E E E E E E   W
|-----------------|-3-3-3-3-3-3-3-3-|-----------------|---------------|
|-2-2-2-2-2-2-2-2-|-3-3-3-3-3-3-3-3-|-2-2-2-2-2-2-2-2-|---------------|
|-2-2-2-2-2-2-2-2-|-4-4-4-4-4-4-4-4-|-2-2-2-2-2-2-2-2-|---------------|
|-2-2-2-2-2-2-2-2-|-5-5-5-5-5-5-5-5-|-2-2-2-2-2-2-2-2-|---------------|
|-----------------|-3-3-3-3-3-3-3-3-|-----------------|---------------|
|-3-3-3-3-3-3-3-3-|-3-3-3-3-3-3-3-3-|-3-3-3-3-3-3-3-3-|---------------|


  E E E E S S S S S S S S
|-------------------------|
|-5-3-2-------2-5-3-2-----|
|-------4-2-4---------4-2-|
|-------------------------|
|-------------------------|
|-------------------------|
|
| W
|-------------------------|
|-------------------------|
|-------------------------|
|-------------------------|
|-------------------------|
|-------------------------|


  S E. E E S S S S S S S S   E S S E S S E S S E S S
|--------------------------|-------------------7-5----|
|--------------------------|-------------7-5----------|
|-2-0--4-2-0---------------|-------7-6----------------|
|------------4-2-0-2-4-5-7-|-9-7----------------------|
|--------------------------|--------------------------|
|--------------------------|--------------------------|
|
| W                          E E   E E   E E   E E
|--------------------------|-------------------5-3----|
|--------------------------|--------------------------|
|--------------------------|-------4-2---4-2----------|
|--------------------------|-4-2----------------------|
|--------------------------|--------------------------|
|--------------------------|--------------------------|


   Q.    S  S  E.  S  E  S  S
|-10----10-12-----------------|
|-------------14-----14-15-17-|
|-----------------14----------|
|-----------------------------|
|-----------------------------|
|-----------------------------|
|
|  Q.    E     E.  S  E  S  S
|-14----15--------------------|
|-------------17-----17-19-20-|
|-----------------------------|
|-----------------19----------|
|-----------------------------|
|-----------------------------|


   S  S  E  +E   S  S  Q   E  S  S    Q.    E  Q  S  S  S  S
|-------------------------14-12-10-|-------------------------|
|-15-14-12-(12)-14-12-10-----------|--8-----8--7--5--7--8-10-|
|----------------------------------|-------------------------|
|----------------------------------|-------------------------|
|----------------------------------|-------------------------|
|----------------------------------|-------------------------|
|
|  E     E  +E   E     Q   E  S  S    Q.    E  Q  S  S  S  S
|-------------------------17-15-14-|-------------------------|
|-19------------17-----------------|-12----12-10--8-10-12-14-|
|-------19-(19)-------18-----------|-------------------------|
|----------------------------------|-------------------------|
|----------------------------------|-------------------------|
|----------------------------------|-------------------------|


   S  S  S  S  S  S  S  S  S  S  S  S  S  S  S  S
|-------------------------------------17----------|
|-12----10-12-14----12-14-15----14-15----19-20-22-|
|----12----------14----------16-------------------|
|-------------------------------------------------|
|-------------------------------------------------|
|-------------------------------------------------|
|
|  S  S  S  S  S  S  S  S  S  S  S  S  Q
|-------------------------------------------------|
|-15----14-15-17-------17-19----17-19-------------|
|----16----------18-19-------19-------------------|
|-------------------------------------------------|
|-------------------------------------------------|
|-------------------------------------------------|


   Q   Q   E  E  E  E    Q   E E E E E E
|---------------------|----------------3--|
|-20------------------|------------2-5----|
|---------------------|--------2-3--------|
|---------------------|-------------------|
|-----21--19-21-22-24-|-21----------------|
|---------------------|-----22------------|
|
|  Q   Q   E  E  E  E    Q   E E E E E E
|---------------------|-------------------|
|---------------------|--------------2-5--|
|---------------------|------2-----3------|
|---------------------|--------4-4--------|
|-----17--16-17-19-21-|-------------------|
|---------------------|-22----------------|


  S S E +Q   E E E E   Q   E  E  E  E  E E
|-2----------------3-|-2--17-15-14-12-10-9-|
|---5-3-(3)--2-3-5---|---------------------|
|--------------------|---------------------|
|--------------------|---------------------|
|--------------------|---------------------|
|--------------------|---------------------|
|
| S S E +Q   E E E E   Q   E  E  E  E  E E
|--------------------|----14-12-10--9--7-6-|
|-3-2------------2-5-|-3-------------------|
|-----4-(4)--2-4-----|---------------------|
|--------------------|---------------------|
|--------------------|---------------------|
|--------------------|---------------------|


  Q   Q   E  E  E  E    Q   E  E  S  S  S  S  S  S  S  S
|-7--14--12-14-15-17-|--------------------15-14-12-10-12--|
|--------------------|-19--17-19-------17-----------------|
|--------------------|--------------18--------------------|
|--------------------|-----------20-----------------------|
|--------------------|------------------------------------|
|--------------------|------------------------------------|
|
| Q   Q   E  E  E  E    Q   E  E  S  S  S  S  S  S  S  S
|----10---9-10-12-14-|--------------------12-10--9--7--9--|
|-8------------------|-15--14-15-------14-----------------|
|--------------------|--------------15--------------------|
|--------------------|-----------16-----------------------|
|--------------------|------------------------------------|
|--------------------|------------------------------------|


   S  S  S  S  S  S  S  S  S  S  S  S  S  S  S  S    H.       Q     W
|-10-12-14-15-17----------19----------21-------21-|-19-------19--|-18----|
|----------------19-20-22----20-22-24----22-24----|--------------|-------|
|-------------------------------------------------|--------------|-------|
|-------------------------------------------------|--------------|-------|
|-------------------------------------------------|--------------|-------|
|-------------------------------------------------|--------------|-------|
|
|  S  S  S  S  S  S  S  S  S  S  S  S  S  S  S  S    H.       Q     W
|--7--9-10-12-14----------------------------------|--------------|-------|
|----------------15-17-19-20----19-20-22-19-20-22-|----------22--|-19----|
|----------------------------21-------------------|-23-----------|-------|
|-------------------------------------------------|--------------|-------|
|-------------------------------------------------|--------------|-------|
|-------------------------------------------------|--------------|-------|


   +W           W          W          W
|-(18)--------|----------|----------|------|
|-------------|----------|----------|------|
|-------------|----------|----------|------|
|-------------|----------|----------|------|
|-------------|----------|----------|------|
|-------------|----------|----------|------|


  W          W          W          W
|----------|----------|----------|------|
|----------|----------|----------|------|
|----------|----------|----------|------|
|----------|----------|----------|------|
|----------|----------|----------|------|
|----------|----------|----------|------|


  Gtr II
  E E E E E E E E   E E E E E E E E   E E E E E E E E   E E E E E E E E
|-------0-------2-|-----------------|-------0-------2-|-----------------|
|-----0-------2---|-------4-------4-|-----0-------2---|-------5-4-------|
|---1-------3-----|-----4-------3---|---1-------3-----|-----4-----4-----|
|-2-------4-------|---4-------5-----|-2-------4-------|---4---------4---|
|-----------------|-2-------6-------|-----------------|-2-------------6-|
|-----------------|-----------------|-----------------|-----------------|


  Gtr I
  W                   H        H          H        H          H        H
|------------------|-------------------|-------------------|-------------------|
|------------------|-------------------|-------------------|-------------------|
|------------------|-------------------|-------------------|-------------------|
|------------------|-------------------|-------------------|-14-------13-------|
|------------------|-------------------|-------------------|-------------------|
|------------------|-19-------18-------|-16-------14-------|-------------------|
|
| Gtr II
| E E E E E E E  E    E E E E  E E E E    E E E E  E E E E    E E E E  E E E E
|------------------|-------------------|-------------------|-------------------|
|------------------|-------------------|-----------------0-|--------5--------4-|
|-------9-8--------|--------4--------3-|--------4------1---|------4--------4---|
|-----9-----9------|------4--------4---|------6------1-----|--2-4--------4-----|
|---9---------9----|----6--------4-----|----6--------------|-----------6-------|
|-7-------------11-|--7--------6-------|--4--------2-------|-------------------|


   H       H         H       H         H       H         H       H
|------------------|-----------------|-----------------|-----------------|
|------------------|-----------------|-----------------|-5-------4-------|
|------------------|-----------------|-----------------|-----------------|
|-11---------------|-9-------8-------|-6-------4-------|-----------------|
|----------9-------|-----------------|-----------------|-----------------|
|------------------|-----------------|-----------------|-----------------|
|
|  E E E E E E E E   E E E E E E E E   E E E E E E E E   E E E E E E E E
|------------------|-----------------|-----------------|-----------------|
|--------5---------|-----------------|---------------0-|-------5-------4-|
|------4---------3-|-------4-------3-|-------4-----1---|-----4-------4---|
|----4---------4---|---1-4-------4---|-----6-----1-----|-2-4-------4-----|
|--4---------4-----|-2---------4-----|---6-------------|---------6-------|
|----------2-------|---------6-------|-4-------2-------|-----------------|


  H       H         H       H         H       H         H       H
|-----------------|-----------------|-----------------|-----------------|
|-2---------------|-----------------|-----------------|-5-------4-------|
|-----------------|-4-------3-------|-1---------------|-----------------|
|---------4-------|-----------------|---------4-------|-----------------|
|-----------------|-----------------|-----------------|-----------------|
|-----------------|-----------------|-----------------|-----------------|
|
| E E E E E E E E   E E E E E E E E   E E E E E E E E   E E E E E E E E
|-----------------|-----------------|-----------------|-----------------|
|-------5---------|-----------------|---------------0-|-------5-------4-|
|-----4---------3-|-------4-------3-|-------4-----1---|-----4-------4---|
|---4---------4---|---1-4-------4---|-----6-----1-----|-2-4-------4-----|
|-4---------4-----|-2---------4-----|---6-------------|---------6-------|
|---------2-------|---------6-------|-4-------2-------|-----------------|


  H       H         H       H         H       H         H       H
|-----------------|-----------------|-----------------|-----------------|
|-2---------------|-----------------|-----------------|-5-------4-------|
|-----------------|-4-------3-------|-1---------------|-----------------|
|---------4-------|-----------------|---------4-------|-----------------|
|-----------------|-----------------|-----------------|-----------------|
|-----------------|-----------------|-----------------|-----------------|
|
| E E E E E E E E   E E E E E E E E   E E E E E E E E   E E E E E E E E
|-----------------|-----------------|-----------------|-----------------|
|-------5---------|-----------------|---------------0-|-------5-------4-|
|-----4---------3-|-------4-------3-|-------4-----1---|-----4-------4---|
|---4---------4---|---1-4-------4---|-----6-----1-----|-2-4-------4-----|
|-4---------4-----|-2---------4-----|---6-------------|---------6-------|
|---------2-------|---------6-------|-4-------2-------|-----------------|


  H       H         H       H         H       H         H       H
|-----------------|-----------------|-----------------|-----------------|
|-2---------------|-----------------|-----------------|-5-------4-------|
|-----------------|-4-------3-------|-1---------------|-----------------|
|---------4-------|-----------------|---------4-------|-----------------|
|-----------------|-----------------|-----------------|-----------------|
|-----------------|-----------------|-----------------|-----------------|
|
| E E E E E E E E   E E E E E E E E   E E E E E E E E   E E E E E E E E
|-----------------|-----------------|-----------------|-----------------|
|-------5---------|-----------------|---------------0-|-------5-------4-|
|-----4---------3-|-------4-------3-|-------4-----1---|-----4-------4---|
|---4---------4---|---1-4-------4---|-----6-----1-----|-2-4-------4-----|
|-4---------4-----|-2---------4-----|---6-------------|---------6-------|
|---------2-------|---------6-------|-4-------2-------|-----------------|


  H       H         H       H         H       H         H       H
|-----------------|-----------------|-----------------|-----------------|
|-2---------------|-----------------|-----------------|-5-------4-------|
|-----------------|-4-------3-------|-1---------------|-----------------|
|---------4-------|-----------------|---------4-------|-----------------|
|-----------------|-----------------|-----------------|-----------------|
|-----------------|-----------------|-----------------|-----------------|
|
| E E E E E E E E   E E E E E E E E   E E E E E E E E   E E E E E E E E
|-----------------|-----------------|-----------------|-----------------|
|-------5---------|-----------------|---------------0-|-------5-------4-|
|-----4---------3-|-------4-------3-|-------4-----1---|-----4-------4---|
|---4---------4---|---1-4-------4---|-----6-----1-----|-2-4-------4-----|
|-4---------4-----|-2---------4-----|---6-------------|---------6-------|
|---------2-------|---------6-------|-4-------2-------|-----------------|


  H       H         H       H         H       H         H       H
|-----------------|-----------------|-----------------|-----------------|
|-2---------------|-----------------|-----------------|-5-------4-------|
|-----------------|-4-------3-------|-1---------------|-----------------|
|---------4-------|-----------------|---------4-------|-----------------|
|-----------------|-----------------|-----------------|-----------------|
|-----------------|-----------------|-----------------|-----------------|
|
| E E E E E E E E   E E E E E E E E   E E E E E E E E   E E E E E E E E
|-----------------|-----------------|-----------------|-----------------|
|-------5---------|-----------------|---------------0-|-------5-------4-|
|-----4---------3-|-------4-------3-|-------4-----1---|-----4-------4---|
|---4---------4---|---1-4-------4---|-----6-----1-----|-2-4-------4-----|
|-4---------4-----|-2---------4-----|---6-------------|---------6-------|
|---------2-------|---------6-------|-4-------2-------|-----------------|


  H       H         H       H         H       H         H       H
|-----------------|-----------------|-----------------|-----------------*|
|-2---------------|-----------------|-----------------|-5-------4-------*|
|-----------------|-4-------3-------|-1---------------|-----------------*|
|---------4-------|-----------------|---------4-------|-----------------*|
|-----------------|-----------------|-----------------|-----------------*|
|-----------------|-----------------|-----------------|-----------------*|
|
| E E E E E E E E   E E E E E E E E   E E E E E E E E   E E E E E E E E
|-----------------|-----------------|-----------------|-----------------*|
|-------5---------|-----------------|---------------0-|-------5-------4-*|
|-----4---------3-|-------4-------3-|-------4-----1---|-----4-------4---*|
|---4---------4---|---1-4-------4---|-----6-----1-----|-2-4-------4-----*|
|-4---------4-----|-2---------4-----|---6-------------|---------6-------*|
|---------2-------|---------6-------|-4-------2-------|-----------------*|



Duration Legend
---------------
W - whole; H - half; Q - quarter; E - 8th; S - 16th; T - 32nd; X - 64th; a - acciaccatura
+ - note tied to previous; . - note dotted; .. - note double dotted
Uncapitalized letters represent notes that are staccato (1/2 duration)
Irregular groupings are notated above the duration line
Duration letters will always appear directly above the note/fret number it represents the
duration for.  Duration letters with no fret number below them represent rests.  Multi-
bar rests are notated in the form Wxn, where n is the number of bars to rest for.  Low
melody durations appear below the staff

Tablature Legend
----------------
 h   - hammer-on
 p   - pull-off
 b   - bend
 pb  - pre-bend
 r   - bend release (if no number after the r, then release immediately)
 /\  - slide into or out of (from/to "nowhere")
 s   - legato slide
 S   - shift slide
 - natural harmonic
[n]  - artificial harmonic
n(n) - tapped harmonic
 ~   - vibrato
 tr  - trill
 T   - tap
 TP  - trem. picking
 PM  - palm muting
\n/  - tremolo bar dip; n = amount to dip
 \n  - tremolo bar down
 n/  - tremolo bar up
/n\  - tremolo bar inverted dip
 =   - hold bend; also acts as connecting device for hammers/pulls
 <> - volume swell (louder/softer)
 x   - on rhythm slash represents muted slash
 o   - on rhythm slash represents single note slash

Misc Legend
-----------
 |  - bar
||  - double bar
||o - repeat start
o|| - repeat end
*|  - double bar (ending)
 :  - bar (freetime)
 $  - Segno
 &  - Coda
Tempo markers -  = BPM(8/16=s8/s16), where s8 = swing 8ths, s16 = swing 16ths


            
            
Suggest correction
Creating personal tab
Creating personal tab
You can edit any tab online and save it as your Personal.

You can edit, replace or remove any tab part or add personal notes – all changes will be seen only by you.

Personal tabs can be accessed anytime from any device, even offline.
Learn more »
Give kudos to tab author, rate the tab!
1 2 3 4 5
comments
print report bad tab
1 comment total.
0 reply
Ratt n' Roll 205 Aug 12, 2009 01:41 PM

This song is down a half step, most x japan songs are tuned down except for art of life.

guest
You may want to rate the tab now too:
select rating
Wanna post a correction for this tab? Suggest correction