Oops, an error
Loading. Please wait.

Rusty Nail bass

version 1
version 1
by X Japan
5,456 views 1 this week
no commentswrite comment
1 2 3 4 5
2 more votes to show rating
add to favorites
×
Save as Personal and add changes to this tab that will be seen only by you. Learn more ›
×
You can save this tab as Personal to edit and correct it or add notes. All changes will be seen only by you. Learn more »
launch autoscroll
font size
0
reset
guitar tuner
edit
Autoscroll
slow
fast
+/-
esc
set tempo
stop
#----------------------------------PLEASE NOTE---------------------------------#
#This file is the author's own work and represents their interpretation of the #
#song. You may only use this file for private study, scholarship, or research. #
#------------------------------------------------------------------------------#

RUSTY NAIL (Bassline)
As recorded by X Japan
(From the 1996 Album DAHLIA)


Transcribed by Erik Alfredsson (Asmogriff) (ComfortablyDumb)

 Words and Music by Yoshiki

 

Gtr I (E A D G) - 'Taiji'
Gtr II (B E A D G B E) - 'Yoshiki - Piano'
Gtr III (B E A D G B E) - 'Yoshiki - Strings'


 Intro
  Q=172
 4/4
  Gtr I
   W                     W
|----------------------|----------------------|
|----------------------|----------------------|
|----------------------|----------------------|
|----------------------|----------------------|
|
| Gtrs II, III
|  E E  E  E E  E  E E   E  E E  E  E E  E  E
|------12------10------|-8------10------12----|
|-10------10------10---|---10------10------10-|
|----9-------9-------9-|------9-------9-------|
|----------------------|----------------------|
|----------------------|----------------------|
|----------------------|----------------------|
|----------------------|----------------------|


  W                     W
|--------------------|-----------------------|
|--------------------|-----------------------|
|--------------------|-----------------------|
|--------------------|-----------------------|
|
| E  E  E E E  E E E    E E  E  E E  E  E E
|---10------8------7-|----7-12------10-------|
|------10-----10-----|-10------10------10----|
|-9-------9------9---|------------9-------9--|
|--------------------|-----------------------|
|--------------------|-----------------------|
|--------------------|-----------------------|
|--------------------|-----------------------|


  W                      W
|----------------------|---------------------|
|----------------------|---------------------|
|----------------------|---------------------|
|----------------------|---------------------|
|
| E  E E  E  E E  E  E   E  E  E E E  E E  E
|-8------10------12----|---10------8------10-|
|---10------10------10-|------10-----10------|
|------9-------9-------|-9-------9------9----|
|----------------------|---------------------|
|----------------------|---------------------|
|----------------------|---------------------|
|----------------------|---------------------|


   W                     W
|----------------------|---------------------|
|----------------------|---------------------|
|----------------------|---------------------|
|----------------------|---------------------|
|
|  E E  E  E E  E  E E   E  E E E  E E  E  E
|------12------10------|-8------7----7-12----|
|-10------10------10---|---10-----10------12-|
|----9-------9-------9-|------9--------------|
|----------------------|---------------------|
|----------------------|---------------------|
|----------------------|---------------------|
|----------------------|---------------------|


    $
    E  E  E  E E  E  E E   E  E E  E  E E  E  E
||-----------------------|----------------------|
||o----------------------|----------------------|
||o----------------------|----------------------|
||--1--1--1--1-1--1--1-1-|-3--3-3--3--3-3--3--3-|
|
|   E  E  E  E E  E  E E   E  E E  E  E E  E  E
||-------12------10------|-8------10------12----|
||----10----10------10---|---10------10------10-|
||o-9----------9-------9-|------9-------9-------|
||-----------------------|----------------------|
||o----------------------|----------------------|
||-----------------------|----------------------|
||-----------------------|----------------------|


  E  E  E E E  E E E    E E  E  E E  E  E E
|--------------------|-----------------------|
|--------------------|-----------------------|
|--------------------|-----------------------|
|-5--5--5-5-5--5-5-5-|--5-5--5--5-5--5--5-5--|
|
| E  E  E E E  E E E    E E  E  E E  E  E E
|---10------8------7-|----7-12------10-------|
|------10-----10-----|-10------10------10----|
|-9-------9------9---|------------9-------9--|
|--------------------|-----------------------|
|--------------------|-----------------------|
|--------------------|-----------------------|
|--------------------|-----------------------|


  1.
  E  E E  E  E E  E  E   E  E  E E E  E E  E
|----------------------|---------------------|
|----------------------|---------------------|
|----------------------|---------------------|
|-1--1-1--1--1-1--1--1-|-3--3--3-3-3--3-3--3-|
|
| E  E E  E  E E  E  E   E  E  E E E  E E  E
|-8------10------12----|---10------8------10-|
|---10------10------10-|------10-----10------|
|------9-------9-------|-9-------9------9----|
|----------------------|---------------------|
|----------------------|---------------------|
|----------------------|---------------------|
|----------------------|---------------------|


   E E  E  E E  E  E E   E  E E E  E E  E  E
|----------------------|----------------------||
|----------------------|---------------------o||
|----------------------|---------------------o||
|--5-5--5--5-5--5--5-5-|-5--5-5-5--5-5--5--5--||
|
|  E E  E  E E  E  E E   E  E E E  E E  E  E
|------12------10------|-8------7----7-12-----||
|-10------10------10---|---10-----10------12--||
|----9-------9-------9-|------9--------------o||
|----------------------|----------------------||
|----------------------|---------------------o||
|----------------------|----------------------||
|----------------------|----------------------||


  2.
                                   To Coda
  E  E E  E  E E  E  E   E  E  E E E  E E  E
|----------------------|---------------------|
|----------------------|---------------------|
|----------------------|---------------------|
|-1--1-1--1--1-1--1--1-|-3--3--3-3-3--3-3--3-|
|
| E  E E  E  E E  E  E   E  E  E E E  E E  E
|-8------10------12----|---10------8------10-|
|---10------10------10-|------10-----10------|
|------9-------9-------|-9-------9------9----|
|----------------------|---------------------|
|----------------------|---------------------|
|----------------------|---------------------|
|----------------------|---------------------|


   E E  Q    Q     E E   E  E E E  Q    Q
|----------------------|---------------------||
|----------------------|---------------------||
|-------5----3---------|---------------------||
|--5-5-------------5-3-|----3---3--5----3----||
|
|  E E  E  E E  E  E E   E  E E E  E E  E  E
|------12------10------|-8------7----7-12----||
|-10------10------10---|---10-----10------12-||
|----9-------9-------9-|------9--------------||
|----------------------|---------------------||
|----------------------|---------------------||
|----------------------|---------------------||
|----------------------|---------------------||


   Verse
    W          +W            W          +W
||-----------|------------|-----------|--------|
||o----------|------------|-----------|--------|
||o----------|------------|-/8--------|-(8)----|
||--1--------|-(1)--------|-----------|--------|


  1.
  Q  E E E E E E   E E E E E E E E   E E E E E E E E   E E E E E E E E
|----------------|-----------------|-----------------|------------------||
|----------------|-----------------|-----------------|-----------------o||
|-3--3-3-3-3-3-3-|-3-3-3-3-3-3-3-3-|-3-3-3-3-3-3-3-3-|-3-3-3-3-3-3-3-3-o||
|----------------|-----------------|-----------------|------------------||


  2.
  W          W          H    Q.   E   E E E E E E E E
|----------|----------|-------------|-----------------||
|----------|-5--------|------5------|---------2-------||
|----------|----------|-------------|---0-2-3---3-2---||
|-3--------|----------|-3---------3-|-3-------------3-||


   Chorus
    Q  E E E E E E   Q  E E E E E E   Q  E E E E E E   Q  E E E E E E
||-----------------|----------------|----------------|-----------------|
||o----------------|----------------|----------------|-----------------|
||o----------------|----------------|-3--3-3-3-3-5-6-|-7--7-7-7-7-7-7--|
||--1--1-1-1-1-1-1-|-3--3-3-3-3-3-3-|----------------|-----------------|


                                   1.
  Q  E E E E E E   Q  E E E E E E   Q  E E E E E E   E E E E E E E E
|----------------|----------------|----------------|------------------||
|----------------|----------------|----------------|-----------------o||
|----------------|----------------|----------------|-----------------o||
|-1--1-1-1-1-1-1-|-3--3-3-3-3-3-3-|-5--5-5-5-5-5-5-|-5-5-5-5-3-3-3-3--||


   Bridge
    2.
    E  E  E  E E  E  E E   E  E E  E  E E  E  E
||-----------------------|----------------------|
||o----------------------|----------------------|
||o----------------------|----------------------|
||--1--1--1--1-1--1--1-1-|-3--3-3--3--3-3--3--3-|
|
|   Gtrs II, III
|   E  E  E  E E  E  E E   E  E E  E  E E  E  E
||-------12------10------|-8------10------12----|
||----10----10------10---|---10------10------10-|
||o-9----------9-------9-|------9-------9-------|
||-----------------------|----------------------|
||o----------------------|----------------------|
||-----------------------|----------------------|
||-----------------------|----------------------|


  E  E  E E E  E E E    E E  E  E E  E  E E
|--------------------|-----------------------|
|--------------------|-----------------------|
|--------------------|-----------------------|
|-5--5--5-5-5--5-5-5-|--5-5--5--5-5--5--5-5--|
|
| E  E  E E E  E E E    E E  E  E E  E  E E
|---10------8------7-|----7-12------10-------|
|------10-----10-----|-10------10------10----|
|-9-------9------9---|------------9-------9--|
|--------------------|-----------------------|
|--------------------|-----------------------|
|--------------------|-----------------------|
|--------------------|-----------------------|


  1.
  E  E E  E  E E  E  E   E  E  E E E  E E  E
|----------------------|---------------------|
|----------------------|---------------------|
|----------------------|---------------------|
|-1--1-1--1--1-1--1--1-|-3--3--3-3-3--3-3--3-|
|
| E  E E  E  E E  E  E   E  E  E E E  E E  E
|-8------10------12----|---10------8------10-|
|---10------10------10-|------10-----10------|
|------9-------9-------|-9-------9------9----|
|----------------------|---------------------|
|----------------------|---------------------|
|----------------------|---------------------|
|----------------------|---------------------|


   E E  E  E E  E  E E   E  E E E  E E  E  E
|----------------------|----------------------||
|----------------------|----7-5--------------o||
|----------------------|--------7--5---------o||
|--5-5--5--5-5--5--5-5-|-5-----------8--5--3--||
|
|  E E  E  E E  E  E E   E  E E E  E E  E  E
|------12------10------|-8------7----7-12-----||
|-10------10------10---|---10-----10------12--||
|----9-------9-------9-|------9--------------o||
|----------------------|----------------------||
|----------------------|---------------------o||
|----------------------|----------------------||
|----------------------|----------------------||


  2.
  E  E E  E  E E  E  E   E  E  E E E  E E  E
|----------------------|---------------------|
|----------------------|---------------------|
|----------------------|---------------------|
|-1--1-1--1--1-1--1--1-|-3--3--3-3-3--3-3--3-|
|
| E  E E  E  E E  E  E   E  E  E E E  E E  E
|-8------10------12----|---10------8------10-|
|---10------10------10-|------10-----10------|
|------9-------9-------|-9-------9------9----|
|----------------------|---------------------|
|----------------------|---------------------|
|----------------------|---------------------|
|----------------------|---------------------|


   E E  Q    Q     E E   E  E E E  Q    Q
|----------------------|---------------------||
|----------------------|---------------------||
|-------5----3---------|---------------------||
|--5-5-------------5-3-|----3---3--5----3----||
|
|  E E  E  E E  E  E E   E  E E E  E E  E  E
|------12------10------|-8------7----7-12----||
|-10------10------10---|---10-----10------12-||
|----9-------9-------9-|------9--------------||
|----------------------|---------------------||
|----------------------|---------------------||
|----------------------|---------------------||
|----------------------|---------------------||


 Verse
  W          +W            W          +W
|----------|------------|-----------|--------|
|----------|------------|-----------|--------|
|----------|------------|-/8--------|-(8)----|
|-1--------|-(1)--------|-----------|--------|


  Q  E E E E E E   E E E E E E E E   E E E E E E E E   E E E E E E E E
|----------------|-----------------|-----------------|-----------------|
|----------------|-----------------|-----------------|-----------------|
|-3--3-3-3-3-3-3-|-3-3-3-3-3-3-3-3-|-3-3-3-3-3-3-3-3-|-3-3-3-3-3-3-3-3-|
|----------------|-----------------|-----------------|-----------------|


   W                      +W
|-----------------------|------------------------|
|-----------------------|------------------------|
|-----------------------|------------------------|
|--1--------------------|-(1)--------------------|
|
| Gtr III
|  E  E E  E  E  E E  E    E   E E  E  E  E E  E
|-----------------------|------------------------|
|-------8----------8----|--------8----------8----|
|----10---10----10---10-|-----10---10----10---10-|
|-10---------10---------|-10----------10---------|
|-----------------------|------------------------|
|-----------------------|------------------------|
|-----------------------|------------------------|
|
| Gtr II
|  E  E E  E  H            E   E E  E  H
|-----------------------|------------------------|
|-------8---------------|--------8---------------|
|----10---10------------|-----10---10------------|
|-10---------10---------|-10----------10---------|
|-----------------------|------------------------|
|-----------------------|------------------------|
|-----------------------|------------------------|


   W                      +W
|-----------------------|------------------------|
|-----------------------|------------------------|
|-/8--------------------|-(8)--------------------|
|-----------------------|------------------------|
|
|  E  E E  E  E  E E  E    E   E E  E  E  E E  E
|-----------------------|------------------------|
|-------8----------8----|--------8----------8----|
|----10---10----10---10-|-----10---10----10---10-|
|-10---------10---------|-10----------10---------|
|-----------------------|------------------------|
|-----------------------|------------------------|
|-----------------------|------------------------|
|
|  E  E E  E  H            E   E E  E  H
|-----------------------|------------------------|
|-------8---------------|--------8---------------|
|----10---10------------|-----10---10------------|
|-10---------10---------|-10----------10---------|
|-----------------------|------------------------|
|-----------------------|------------------------|
|-----------------------|------------------------|


  W          W          H    Q.   E   E E E E E E E E
|----------|----------|-------------|-----------------||
|----------|-5--------|------5------|---------2-------||
|----------|----------|-------------|---0-2-3---3-2---||
|-3--------|----------|-3---------3-|-3-------------3-||


   Chorus
    Q  E E E E E E   Q  E E E E E E   Q  E E E E E E   Q  E E E E E E
||-----------------|----------------|----------------|-----------------|
||o----------------|----------------|----------------|-----------------|
||o----------------|----------------|-3--3-3-3-3-5-6-|-7--7-7-7-7-7-7--|
||--1--1-1-1-1-1-1-|-3--3-3-3-3-3-3-|----------------|-----------------|


                    D.S. al Coda
  Q  E E E E E E   Q  E E E E E E   Q  E E E E E E   E E E E E E +Q
|----------------|----------------|----------------|-------------------||
|----------------|----------------|----------------|------------------o||
|----------------|----------------|----------------|------------------o||
|-1--1-1-1-1-1-1-|-3--3-3-3-3-3-3-|-5--5-5-5-5-5-5-|-5-5-5-5-5-3-(3)---||


 Interlude
  &
 2/2
   W                               +W
|-------------------------------|-------------------------|
|-------------------------------|-------------------------|
|-------------------------------|-------------------------|
|--6----------------------------|--(6)--------------------|
|
| Gtr II
|  E  E   E   E   E   E   E   E     Q.        E  +Q    Q
|-13-------------------------10-|--13--------12-(12)--13--|
|-11---------------------10-----|--15--------15-(15)--15--|
|--------------------10---------|-------------------------|
|----------------12-------------|--12---------------------|
|--------13--12-----------------|-------------------------|
|----13-------------------------|-------------------------|
|-11----------------------------|-------------------------|
|
| Gtr III
|  Q      Q       Q       Q         Q     Q       Q    Q
|-22----(22)----(22)----(22)----|-(22)--(22)-----24---22--|
|----------------10-------------|----------------10-------|
|--------10--------------10-----|--------10-----------10--|
|--8----------------------------|---8---------------------|
|-------------------------------|-------------------------|
|-10----------------------------|-(10)--------------------|
|-------------------------------|-------------------------|
   W                               +W


   W                                W
|-------------------------------|-------------------------|
|-------------------------------|-------------------------|
|-------------------------------|-------------------------|
|-------------------------------|-------------------------|
|
|  E  E   E   E   E   E   E   E     Q.        E  +Q    Q
|--8-------------------------12-|--15--------13-(13)--15--|
|--8---------------------13-----|--13--------13-(13)--13--|
|--------------------14---------|-------------------------|
|----------------14-------------|-------------------------|
|--------12--15-----------------|--15---------------------|
|----12-------------------------|-------------------------|
|-10----------------------------|-------------------------|
|
|  Q      Q       Q       Q         Q     Q       Q    Q
|-20----(20)----(20)----(20)----|-(20)--(20)-----18---17--|
|----------------10-------------|----------------10-------|
|---------9---------------9-----|---------9------------9--|
|--7----------------------------|---7---------------------|
|-------------------------------|-------------------------|
|--8----------------------------|--(8)--------------------|
|-------------------------------|-------------------------|
   W                               +W


  Gtr II
   E  E   E   E   E   E   E   E     Q.        E  +Q    Q
|-13-------------------------13-|--18--------17-(17)--18--|
|-11---------------------15-----|--15--------15-(15)--15--|
|--------------------14---------|-------------------------|
|----------------15-------------|--12---------------------|
|--------10--17-----------------|-------------------------|
|----10-------------------------|-------------------------|
|--8----------------------------|-------------------------|
|
| Gtr III
|  Q      Q       Q       Q         Q     Q       Q    Q
|-18----(18)----(18)----(18)----|-(18)--(18)-----17---18--|
|----------------10-------------|----------------10-------|
|--------10--------------10-----|--------10-----------10--|
|--8----------------------------|---8---------------------|
|-------------------------------|-------------------------|
|--6----------------------------|--(6)--------------------|
|-------------------------------|-------------------------|
   W                               +W


   E E   E   E   E   E   E   E     Q     Q    Q    Q
|-17------------------------12-|--17---------15---------|
|-13--------------------13-----|--17---------17---------|
|-------------------14---------|--------17--------------|
|---------------14-------------|------------------------|
|--------8--15-----------------|-------------------8----|
|----8-------------------------|------------------------|
|--6---------------------------|------------------------|
|
|  Q     Q       Q       Q         Q     Q    Q    Q
|-17---(17)----(17)----(17)----|-(17)--(17)--15--(15)---|
|---------------10-------------|-------------10---------|
|--------9---------------9-----|---------9---------9----|
|--7---------------------------|---7--------------------|
|------------------------------|------------------------|
|--8---------------------------|--(8)-------------------|
|------------------------------|------------------------|
   W                              +W


   E  E   E   E   E   E   E   E     Q.        E  +Q    Q
|-13-------------------------10-|--13--------12-(12)--13--|
|-11---------------------10-----|--15--------15-(15)--15--|
|--------------------10---------|-------------------------|
|----------------12-------------|--12---------------------|
|--------13--12-----------------|-------------------------|
|----13-------------------------|-------------------------|
|-11----------------------------|-------------------------|
|
|  Q      Q       Q       Q         Q     Q       Q    Q
|-13----(13)----(13)----(13)----|-(13)--(13)-----12---10--|
|----------------10-------------|----------------10-------|
|--------10--------------10-----|--------10-----------10--|
|--8----------------------------|---8---------------------|
|-------------------------------|-------------------------|
|--6----------------------------|--(6)--------------------|
|-------------------------------|-------------------------|
   W                               +W


   E  E  E   E  E   E  E   E    Q    Q    Q   Q
|-15----------------------12-|-15--------13--15---|
|-13------------------13-----|-17--------15--17---|
|------------------14--------|------17------------|
|--------------14------------|--------------------|
|-------12--15---------------|--------------------|
|----12----------------------|--------------------|
|-10-------------------------|--------------------|
|
|  Q     Q      Q      Q        Q    Q    Q   Q
|--8----(8)----(8)----(8)----|-(8)--(8)-----------|
|--------------10------------|-----------11--10---|
|--------9-------------9-----|-------9--------9---|
|--7-------------------------|--7-----------------|
|----------------------------|--------------------|
|--5-------------------------|-(5)----------------|
|----------------------------|--------------------|
   W                           +W


  Gtr I
   W                         W
|-------------------------|-----------------------|
|-------------------------|-----------------------|
|-------------------------|-----------------------|
|-------------------------|-----------------------|
|
| Gtr II
|  E E  E  E  E  E  E   E    Q.       E  +Q    Q
|-15-------------------11-|-15-------13-(13)--15--|
|-16---------------11-----|-16-------16-(16)--16--|
|----------------8--------|-15--------------------|
|----------8--------------|-----------------------|
|-------6----10-----------|-----------------------|
|----6--------------------|-----------------------|
|--4----------------------|-----------------------|
|
| Gtr III
|  Q    Q     Q     Q        Q    Q       Q    Q
|--6---(6)---(6)---(6)----|-(6)--(6)------5----6--|
|-------------8-----------|---------------8-------|
|-------8-----------8-----|-------8------------8--|
|--8----------5-----------|--8--------------------|
|-------6-----------6-----|-----------------------|
|--6----------------------|-(6)-------------------|
|-------------------------|-----------------------|
   W                        +W


   W                             H             H
|----------------------------|------------------------------|
|----------------------------|------------------------------|
|----------------------------|------------------------------|
|----------------------------|----------------15\-----------|
|
|  E  E  E   E  E   E  E   E     E   E  E   E  E   E  E  E
|-13----------------------10-|--13-----10--13-15--------22--|
|-15------------------10-----|------11------------15-18-----|
|------------------10--------|--19--------------------------|
|--------------12------------|--12--------------------------|
|-------13--12---------------|------------------------------|
|----13----------------------|------------------------------|
|-11-------------------------|------------------------------|
|
|  Q     Q      Q      Q         Q      Q      Q      Q
|--5----(5)----(5)----(5)----|--(5)----(5)----(5)----13-----|
|--------------10------------|--11-----10-----11------------|
|--------7------------10-----|-----------------------10-----|
|----------------------------|------------------------------|
|--------5-----12------8-----|--13-----12-----13------------|
|-10-------------------------|-(10)-------------------------|
|----------------------------|------------------------------|
   W                            +W


   W                               +H               H
|-------------------------------|---------------------------------|
|-------------------------------|---------------------------------|
|--6----------------------------|--(6)--------------6-------------|
|-------------------------------|---------------------------------|
|
|  E  E   E   E   E   E   E   E     E   E   E   E   E   E   E   E
|-23----------------------------|------------------15------15--18-|
|-20----------------------------|--------------15-----------------|
|----------------12-------------|----------15----------15---------|
|--------13--------------13-----|------13-------------------------|
|----13------13------13------13-|--13-----------------------------|
|-11----------------------------|---------------------------------|
|-------------------------------|---------------------------------|
|
|  Q      Q       Q       Q         Q       Q       Q       Q
|-15----(15)----(15)----(15)----|-(15)----(15)-----13------11-----|
|-16----(16)----(16)----(16)----|-(16)----(16)----(16)----(16)----|
|----------------12-------------|------------------12-------------|
|--------13--------------13-----|----------13--------------13-----|
|-13----------------------------|--13-----------------------------|
|-11----------------------------|-(11)----------------------------|
|-------------------------------|---------------------------------|
   W                               +W


   H.                      E   E     H.                 Q
|--------------------------------|--------------------------|
|--------------------------------|---8----------------------|
|--------------------------6h==8-|----------------------6---|
|--6-----------------------------|--------------------------|
|
|  E   E   E   E   E   E   E   E     E   E   E   E  Q   Q
|-22-----------------------------|--18-----------------18---|
|-23----------------------15--18-|------18---------18--18---|
|---------------------15---------|----------19-----19-------|
|-------------12--15-------------|--------------20----------|
|---------13---------------------|--------------------------|
|-----13-------------------------|--------------------------|
|-11-----------------------------|--------------------------|
|
|  Q       Q       Q       Q         Q       Q      Q   Q
|-10-----(10)----(10)----(10)----|-(10)----(10)-----8---6---|
|------------------6-------------|------------------6-------|
|----------7---------------7-----|-----------7----------7---|
|--8-----------------------------|---8----------------------|
|--------------------------------|--------------------------|
|--6-----------------------------|--(6)---------------------|
|--------------------------------|--------------------------|
   W                                +W


   H.                 E   E    H.            Q
|---------------------------|-10----------------|
|---------------------8h=10-|-------------------|
|--8------------------------|-------------------|
|---------------------------|----------------1--|
|
|  E  E  E  E  E   E  E   E    Q    Q    Q   Q
|-17----------------------8-|-13--------11--13--|
|-18-----------------10-----|-13--------11--13--|
|-----------------10--------|-14--------14--14--|
|-----------7-10------------|------10-----------|
|--------8------------------|-------------------|
|-----8---------------------|-------------------|
|--6------------------------|-------------------|
|
|  Q     Q     Q      Q        Q    Q    Q   Q
|--8----(8)---(8)----(8)----|-(8)--(8)---6---5--|
|-------------10------------|-----------10------|
|-------10-----------10-----|------10-------10--|
|-10------------------------|-10----------------|
|---------------------------|-------------------|
|--8------------------------|-(8)---------------|
|---------------------------|-------------------|
   W                          +W


   H.                  +E   e     E   E  Q     +E   e  E  E
|-----------------------------|------------------------------|
|-----------------------------|------------------------------|
|-----------------------------|------------------------------|
|--3-------------------(3)--3-|-------3--3-----(3)--3-----3--|
|
|  E   E  E   E  E   E  E   E     E   E  E   E  E   E  E  E
|-10--------------------------|--18------------17-----18-----|
|-11-------------------15-----|--15-----15-----15-----15-----|
|-12----------------15-----15-|------15-----15-----15----15--|
|---------------17------------|------------------------------|
|--------10--17---------------|------------------------------|
|-----10----------------------|------------------------------|
|--8--------------------------|------------------------------|
|
|  Q      Q      Q      Q         Q      Q      Q      Q
|--6-----(6)----(6)----(6)----|--(6)----(6)-----6-----11-----|
|----------------8------------|-----------------8------------|
|---------7-------------7-----|----------7-------------7-----|
|--8--------------------------|---8--------------------------|
|-----------------------------|------------------------------|
|-10--------------------------|-(10)-------------------------|
|-----------------------------|------------------------------|
   W                             +W


   H.                  +E  e     E  E   E  E   H
|----------------------------|------------------------------|
|----------------------------|------------------------------|
|--6-------------------(6)-6-|------6------6---6------------|
|----------------------------|------------------------------|
|
|  E  E   E  E   E  E   E  E     E  E   E  E   E   E   E  E
|-18-------------------------|--10------------11--13--------|
|-16-----------------------8-|--11------------11--11--------|
|-------------------7---8----|----------8-----------------8-|
|------------5---8-----------|------8------8-----------8----|
|---------6------------------|------------------------------|
|-----6----------------------|------------------------------|
|--4-------------------------|------------------------------|
|
|  Q      Q      Q      Q        Q      Q      Q       Q
|-15----(15)---(15)---(15)---|-(15)---(15)----13------11----|
|-16----(16)---(16)---(16)---|-(16)---(16)---(16)----(16)---|
|---------------12-----------|----------------12------------|
|--------13------------13----|---------13-------------13----|
|-13-------------------------|--13--------------------------|
|-11-------------------------|-(11)-------------------------|
|----------------------------|------------------------------|
   W                            +W


   H.                    E   E     H.                Q
|------------------------------|--10----------------------|
|------------------------8h=10-|--------------------------|
|--8---------------------------|--------------------------|
|------------------------------|---------------------1----|
|
|  E  E   E  E   E   E   E   E     Q     Q    E  E   Q
|-15-------------------------8-|--13---------11-----13----|
|-13--------------------10-----|--13---------11-----------|
|-------------------10---------|--14---------14-----------|
|------------7--10-------------|--------10------10--------|
|---------8--------------------|--------------------------|
|-----8------------------------|--------------------------|
|--6---------------------------|--------------------------|
|
|  Q      Q      Q       Q         Q     Q    Q      Q
|-13----(13)---(13)----(13)----|-(13)--(13)--11----(11)---|
|-13----(13)---(13)----(13)----|-(13)--(13)---------------|
|---------------14-------------|-------------14-----------|
|--------15-------------15-----|--------15----------15----|
|-15---------------------------|--15----------------------|
|--8---------------------------|--(8)---------------------|
|------------------------------|--------------------------|
   W                              +W


   H.                      E   E     H.                      Q
|--------------------------------|--12-----------------------------|
|-------------------------10h=12-|--------------------------12-----|
|--------------------------------|---------------------------------|
|--3-----------------------------|---------------------------------|
|
|  E   E   E   E   E   E   E   E     E   E   E   E   E   E   E   E
|-10--------------------------15-|--18----------------------18-----|
|-11----------------------15-----|--20------20----------20---------|
|-12------------------15---------|------19----------19----------19-|
|-----------------17-------------|--------------20-----------------|
|---------10--17-----------------|---------------------------------|
|-----10-------------------------|---------------------------------|
|--8-----------------------------|---------------------------------|
|
|  Q       Q       Q       Q         Q       Q       Q       Q
|-10-----(10)----(10)----(10)----|-(10)----(10)----(10)----(10)----|
|------------------8-------------|-------------------8-------------|
|----------7---------------7-----|-----------7---------------7-----|
|--5-----------------------------|---5-----------------------------|
|--------------------------------|---------------------------------|
|--3-----------------------------|--(3)----------------------------|
|--------------------------------|---------------------------------|
   W                                +W


    H             +H                  q       E   E   Q       Q
|---------------------------------|----------------------------------|
|---------------------------------|-------------------5--------------|
|--10------------(10)\------------|---------------------------5------|
|---------------------------------|---3-----------3------------------|
|
|   E   E   E  E   E    E   E   E     E   E   E   E   E   E   E   E
|--22--------------------------15-|--18----------18----------18------|
|--20----------------------15-----|--20----------20------20--20------|
|----------------------12---------|----------19------19----------19--|
|--------------8--12--------------|------20--------------------------|
|----------10---------------------|----------------------------------|
|------10-------------------------|----------------------------------|
|---8-----------------------------|----------------------------------|
|
|   Q       Q      Q        Q         Q       Q       Q       Q
|-(10)----(10)---(10)-----(10)----|-(10)----(10)----(10)----(10)-----|
|------------------8--------------|-------------------8--------------|
|-----------7---------------7-----|-----------7---------------7------|
|---5-----------------------------|---5------------------------------|
|---------------------------------|----------------------------------|
|--(3)----------------------------|--(3)-----------------------------|
|---------------------------------|----------------------------------|
   +W                                +W


   H.                  +E  E    +E  E  +E  E   H
|----------------------------|---------------------------|
|----------------------------|---------------------------|
|--6-------------------(6)-6-|--(6)-6--(6)-6---6---------|
|----------------------------|---------------------------|
|
|  E  E   E  E   E  E   E  E     E  E   E  E   Q     Q
|-18--------------------6----|--15------------13----15---|
|-16----------------8--------|--16------------11---------|
|----------------8---------8-|----------8----------------|
|------------8---------------|------8------8-------------|
|---------6------------------|---------------------------|
|-----6----------------------|---------------------------|
|--4-------------------------|---------------------------|
|
|  Q      Q      Q      Q        Q      Q      Q     Q
|-15----(15)---(15)---(15)---|-(15)---(15)----13----11---|
|-16----(16)---(16)---(16)---|-(16)---(16)---(16)--(16)--|
|---------------12-----------|----------------12---------|
|--------13------------13----|---------13-----------13---|
|-13-------------------------|--13-----------------------|
|-11-------------------------|-(11)----------------------|
|----------------------------|---------------------------|
   W                            +W


   H.                    E   E     H             Q       Q
|------------------------------|--10----------------------------||
|------------------------8h=10-|--------------------------------||
|--8---------------------------|-----------------8\-------------||
|------------------------------|--------------------------------||
|
|  E  E   E  E   E   E   E   E     E   E   Q     E   E   E   E
|-13-------------------------8-|--13----------------------------||
|-13--------------------10-----|--13------13----11--13----------||
|-10----------------10---------|--14----------------------------||
|------------7--10-------------|------10--------------------15--||
|---------8--------------------|------------------------12------||
|-----8------------------------|--------------------------------||
|--6---------------------------|--------------------------------||
|
|  Q      Q      Q       Q         Q       Q     Q       Q
|-13----(13)---(13)----(13)----|--11-----(11)---13-----(13)-----||
|-13----(13)---(13)----(13)----|-(13)----(13)--(13)----(13)-----||
|---------------14-------------|----------------14--------------||
|--------15-------------15-----|----------15------------15------||
|-15---------------------------|--15----------------------------||
|--8---------------------------|--(8)---------------------------||
|------------------------------|--------------------------------||
   W                              +W


 Pre-Solo
 4/4
  E E E E E E E E   E E E E E E E E   E E E E E E E E   E E E E E E E E
|-----------------|-----------------|-----------------|-----------------|
|-----------------|-----------------|-------------5-6-|-7-7-6-6-5-5-----|
|-1-1-1-1-1-1-1-1-|-3-3-3-3-3-3-3-3-|-5-5-5-5-5-8-----|-------------3-3-|
|-----------------|-----------------|-----------------|-----------------|


  E E E E E E E E   E E E E E E E E
|-----------------|-----------------|
|-----------------|-----------------|
|-1-1-1-1-1-1-1-1-|-3-3-3-3-3-3-3-3-|
|-----------------|-----------------|


  E  E  E E  E  E E  E    +E   E  E  E  E  E  E  E
|---12p10---12p10---12-|-(12)-12-12-13-12-10--------|
|-0-------0-------0----|---------------------12-10--|
|----------------------|----------------------------|
|----------------------|----------------------------|


  E E E E E E E E   E E E E E E E E
|-----------------|-----------------||
|-----------------|-----------------||
|-1-1-1-1-1-1-1-1-|-3-3-3-3-3-3-3-3-||
|-----------------|-----------------||


 Guitar Solo
  E E E E E E E E   E E E E E E E E   E E E E E E E E   E E E E E E E E
|-----------------|-----------------|-----------------|------------------|
|-----------------|-----------------|-----------------|------------------|
|-----------------|-----5-5-6-6-8-8-|-----------------|------------------|
|-4-4-4-4-4-4-4-4-|-6-6-------------|-8-8-8-8-8-8-8-8-|-8-8-8-8-8-8-8-8--|


  E E E E E E E E   E E E E E E E E   E E E E E E E E   E  E E  E  E  E E E
|-----------------|-----------------|-----------------|----------------------|
|-----------------|-----------------|-----------------|----------------------|
|-----------------|-----------------|-----------8-6---|---10-8----------8----|
|-4-4-4-4-4-4-4-4-|-6-6-6-6-6-6-6-6-|-8-8-8-8-8-----8-|-8------11-11-11---8--|


  E E E E E E E E   E E E E E E E E   E E E E E E E E   E E E E E E E E
|-----------------|-----------------|-----------------|------------------|
|-----------------|-----------------|-----------6-5-8-|-5-5-5-5-5-5-5-5--|
|-----------------|-----------------|-6-6-6-6-6-------|------------------|
|-4-4-4-4-4-4-4-4-|-6-6-6-6-6-6-6-6-|-----------------|------------------|


  E E E E E E E E   E E E E E E Q
|-----------------|-----------------|
|-6-6-6-6-6-6-6-6-|-8-8-8-8-8-8-----|
|-----------------|-----------------|
|-----------------|-------------6\--|


  E E E E E E E E   E E E E E E E E   Q.   E +Q   Q    +E  E +H.
|-----------------|-----------------|----------------|--------------||
|-----------------|-----------------|----------------|--------------||
|-3-3-3-3-3-3-3-3-|-3-3-3-3-3-3-3-3-|-5----5-(5)--5--|-(5)-7-(7)----||
|-----------------|-----------------|----------------|--------------||


 Verse
  W          +H     +E  E E E   W          +H     +H
|----------|------------------|----------|----------------|
|----------|------------------|----------|----------------|
|-8--------|-(8)----(8)-8---8-|-8--------|-(8)----(8)\----|
|----------|------------------|----------|----------------|


  Q  E E E E E E   E E E E E E E E   E E E E E E E E   E E E E E E E E
|----------------|-----------------|-----------------|-----------------|
|----------------|-----------------|-----------------|-----------------|
|-3--3-3-3-3-3-3-|-3-3-3-3-3-3-3-3-|-3-3-3-3-3-3-3-3-|-3-3-3-3-3-3-3-3-|
|----------------|-----------------|-----------------|-----------------|


  W          +Q   Q  E E E E   W          +W
|----------|-----------------|----------|--------|
|-3--------|-(3)--3----3---3-|-3--------|-(3)----|
|----------|-----------------|----------|--------|
|----------|-----------------|----------|--------|


  H    +E  E +E  E   Q.   E +E  E +E  E   H    +E  E +E  E   E E E E E E E E
|------------------|--------------------|------------------|-----------------||
|-5----(5)---------|-5----5-(5)---------|-5----(5)---------|---------2-------||
|------------------|--------------------|------------------|---0-2-3---3-2---||
|----------3-(3)-3-|------------3-(3)-3-|----------3-(3)-3-|-3-------------3-||


   Chorus
    Q  E E E E E E   Q  E E E E E E   Q  E E E E E E   Q  E E E E E E
||-----------------|----------------|----------------|-----------------|
||o----------------|----------------|----------------|-----------------|
||o----------------|----------------|-3--3-3-3-3-5-6-|-7--7-7-7-7-7-7--|
||--1--1-1-1-1-1-1-|-3--3-3-3-3-3-3-|----------------|-----------------|


  1.
  Q  E E E E E E   Q  E E E E E E   Q  E E E E E E   E E E E E E +Q
|----------------|----------------|----------------|-------------------||
|----------------|----------------|----------------|------------------o||
|----------------|----------------|----------------|------------------o||
|-1--1-1-1-1-1-1-|-3--3-3-3-3-3-3-|-5--5-5-5-5-5-5-|-5-5-5-5-5-3-(3)---||


  2.
  Q  E E E E E E   Q  E E E E E E   Q  E E E E E E   H    H
|----------------|----------------|----------------|-----------|
|----------------|----------------|----------------|-----------|
|----------------|----------------|----------------|-----------|
|-1--1-1-1-1-1-1-|-3--3-3-3-3-3-3-|-5--5-5-5-5-5-5-|-5----3----|


  W          W          H.      +E  E   E E +E  E E E +E  E
|----------|----------|---------------|-----------4-7-(7)-4-|
|----------|----------|---------------|---6-(6)-6-----------|
|----------|----------|-3-------(3)-3-|-7-------------------|
|-1--------|-3--------|---------------|---------------------|


                          2/4
  W          E E Q  H      W
|-5--------|-------------|------||
|----------|-5-----------|------||
|----------|-------------|------||
|----------|-------------|------||


   Outro
   4/4
    E  E  E  E E  E  E E   E  E E  E  E E  E  E
||-----------------------|----------------------|
||o----------------------|----------------------|
||o----------------------|----------------------|
||--1--1--1--1-1--1--1-1-|-3--3-3--3--3-3--3--3-|
|
|   Gtrs II, III
|   E  E  E  E E  E  E E   E  E E  E  E E  E  E
||-------12------10------|-8------10------12----|
||----10----10------10---|---10------10------10-|
||o-9----------9-------9-|------9-------9-------|
||-----------------------|----------------------|
||o----------------------|----------------------|
||-----------------------|----------------------|
||-----------------------|----------------------|


  E  E  E E E  E E E    E E  E  E E  E  E E
|--------------------|----------------------|
|--------------------|----------------------|
|--------------------|----------------------|
|-5--5--5-5-5--5-5-5-|--5-5--5--5-5--5--5-5-|
|
| E  E  E E E  E E E    E E  E  E E  E  E E
|---10------8------7-|----7-12------10------|
|------10-----10-----|-10------10------10---|
|-9-------9------9---|------------9-------9-|
|--------------------|----------------------|
|--------------------|----------------------|
|--------------------|----------------------|
|--------------------|----------------------|


  1.
  E  E E  E  E E  E  E   E  E  E E E  E E  E
|----------------------|---------------------|
|----------------------|---------------------|
|----------------------|---------------------|
|-1--1-1--1--1-1--1--1-|-3--3--3-3-3--3-3--3-|
|
| E  E E  E  E E  E  E   E  E  E E E  E E  E
|-8------10------12----|---10------8------10-|
|---10------10------10-|------10-----10------|
|------9-------9-------|-9-------9------9----|
|----------------------|---------------------|
|----------------------|---------------------|
|----------------------|---------------------|
|----------------------|---------------------|


   E E  E  E E  E  E E   E  E E E  E E  E  E
|----------------------|----------------------||
|----------------------|----7-5--------------o||
|----------------------|--------7--5---------o||
|--5-5--5--5-5--5--5-5-|-5-----------8--5--3--||
|
|  E E  E  E E  E  E E   E  E E E  E E  E  E
|------12------10------|-8------7----7-12-----||
|-10------10------10---|---10-----10------12--||
|----9-------9-------9-|------9--------------o||
|----------------------|----------------------||
|----------------------|---------------------o||
|----------------------|----------------------||
|----------------------|----------------------||


  2.
  E  E E  E  E E  E  E   E  E  E E E  E E  E
|----------------------|---------------------|
|----------------------|---------------------|
|----------------------|---------------------|
|-1--1-1--1--1-1--1--1-|-3--3--3-3-3--3-3--3-|
|
| E  E E  E  E E  E  E   E  E  E E E  E E  E
|-8------10------12----|---10------8------10-|
|---10------10------10-|------10-----10------|
|------9-------9-------|-9-------9------9----|
|----------------------|---------------------|
|----------------------|---------------------|
|----------------------|---------------------|
|----------------------|---------------------|


   E E  Q    Q     E E   E  E E E  Q  Q
|----------------------|-----------------*|
|----------------------|-----------------*|
|-------5----3---------|-----------------*|
|--5-5-------------5-3-|----3---3--5-----*|
|
|  E E  E  E E  E  E E   E  E E E  Q  Q
|------12------10------|-8------7--------*|
|-10------10------10---|---10-----10-----*|
|----9-------9-------9-|------9----------*|
|----------------------|-----------------*|
|----------------------|-----------------*|
|----------------------|-----------------*|
|----------------------|-----------------*|




--------------------------------------------------------------------------------


Duration Legend
---------------
W - whole; H - half; Q - quarter; E - 8th; S - 16th; T - 32nd; X - 64th; a - acciaccatura
+ - note tied to previous; . - note dotted; .. - note double dotted
Uncapitalized letters represent notes that are staccato (1/2 duration)
Irregular groupings are notated above the duration line
Duration letters will always appear directly above the note/fret number it represents the
duration for.  Duration letters with no fret number below them represent rests.  Multi-
bar rests are notated in the form Wxn, where n is the number of bars to rest for.  Low
melody durations appear below the staff

Tablature Legend
----------------
 h   - hammer-on
 p   - pull-off
 b   - bend
 pb  - pre-bend
 r   - bend release (if no number after the r, then release immediately)
 /\  - slide into or out of (from/to "nowhere")
 s   - legato slide
 S   - shift slide
 - natural harmonic
[n]  - artificial harmonic
n(n) - tapped harmonic
 ~   - vibrato
 tr  - trill
 T   - tap
 TP  - trem. picking
 PM  - palm muting
\n/  - tremolo bar dip; n = amount to dip
 \n  - tremolo bar down
 n/  - tremolo bar up
/n\  - tremolo bar inverted dip
 =   - hold bend; also acts as connecting device for hammers/pulls
 <> - volume swell (louder/softer)
 x   - on rhythm slash represents muted slash
 o   - on rhythm slash represents single note slash

Misc Legend
-----------
 |  - bar
||  - double bar
||o - repeat start
o|| - repeat end
*|  - double bar (ending)
 :  - bar (freetime)
 $  - Segno
 &  - Coda
Tempo markers -  = BPM(8/16=s8/s16), where s8 = swing 8ths, s16 = swing 16ths


            
            
Suggest correction
Creating personal tab
Creating personal tab
You can edit any tab online and save it as your Personal.

You can edit, replace or remove any tab part or add personal notes – all changes will be seen only by you.

Personal tabs can be accessed anytime from any device, even offline.
Learn more »
Give kudos to tab author, rate the tab!
1 2 3 4 5
comments
print report bad tab
guest
You may want to rate the tab now too:
select rating
Wanna post a correction for this tab? Suggest correction