Oops, an error
Loading. Please wait.

Silent Jealousy tab

version 1
version 1

Whole song

by X Japan
12,606 views 12 this week
no commentswrite comment
1 2 3 4 5
3 more votes to show rating
add to favorites
×
Save as Personal and add changes to this tab that will be seen only by you. Learn more ›
×
You can save this tab as Personal to edit and correct it or add notes. All changes will be seen only by you. Learn more »
launch autoscroll
font size
0
reset
how to read this tab
guitar tuner
edit
Autoscroll
slow
fast
+/-
esc
set tempo
stop
X Japan - Silent Jealousy
/!\ TUNING: HALF STEP DOWN!!! /!\
D# A# F# C# G# D#
 HIDE'S PART:


     PM PM    PM PM    PM PM PM PM          PM PM    PM PM    PM PM          
  E  S  S  E  S  S  E  S  S  S  S  E     E  S  S  E  S  S  E  S  S  S S  E   
--------------------------------------|-------------------------------------|
--------------------------------------|-------------------------------------|
--2--------4--------5--------------2--|--L--------4--------5--------4-5S-7--|
--2--------5--------7--------------2--|--L--------5--------7--------5-5S-7--|
-----0--0-----0--0-----0--0--0--0-----|-----0--0-----0--0-----0--0----------|
--------------------------------------|-------------------------------------|


           PM               PM PM PM               
  H        E  Q    E     E  S  S  E  Q    Q    E   
----------------------|---------------------------|
----------------------|---------------------------|
--L-----------5----7--|--5-----------4----5----4--|
--L-----------7----7--|--5-----------5----5----5--|
-----------0----------|-----0--0--0---------------|
----------------------|---------------------------|


     PM PM    PM PM    PM PM PM PM          PM PM    PM PM    PM PM          
  E  S  S  E  S  S  E  S  S  S  S  E     E  S  S  E  S  S  E  S  S  S S  E   
--------------------------------------|-------------------------------------|
--------------------------------------|-------------------------------------|
--2--------4--------5--------------2--|--L--------4--------5--------4-5S-7--|
--2--------5--------7--------------2--|--L--------5--------7--------5-5S-7--|
-----0--0-----0--0-----0--0--0--0-----|-----0--0-----0--0-----0--0----------|
--------------------------------------|-------------------------------------|


           PM               PM PM PM               
  H        E  Q    E     E  S  S  E  Q    Q    E   
----------------------|---------------------------|
----------------------|---------------------------|
--L-----------5----7--|--5-----------4----5----4--|
--L-----------7----7--|--5-----------5----5----5--|
-----------0----------|-----0--0--0---------------|
----------------------|---------------------------|


     PM PM    PM PM    PM PM PM PM          PM PM    PM PM    PM PM          
  E  S  S  E  S  S  E  S  S  S  S  E     E  S  S  E  S  S  E  S  S  S S  E   
--------------------------------------|-------------------------------------|
--------------------------------------|-------------------------------------|
--2--------4--------5--------------2--|--L--------4--------5--------4-5S-7--|
--2--------5--------7--------------2--|--L--------5--------7--------5-5S-7--|
-----0--0-----0--0-----0--0--0--0-----|-----0--0-----0--0-----0--0----------|
--------------------------------------|-------------------------------------|


           PM               PM PM PM               
  H        E  Q    E     E  S  S  E  Q    Q    E   
----------------------|---------------------------|
----------------------|---------------------------|
--L-----------5----7--|--5-----------4----5----4--|
--L-----------7----7--|--5-----------5----5----5--|
-----------0----------|-----0--0--0---------------|
----------------------|---------------------------|


     PM PM    PM PM    PM PM PM PM          PM PM    PM PM    PM PM          
  E  S  S  E  S  S  E  S  S  S  S  E     E  S  S  E  S  S  E  S  S  S S  E   
--------------------------------------|-------------------------------------|
--------------------------------------|-------------------------------------|
--2--------4--------5--------------2--|--L--------4--------5--------4-5S-7--|
--2--------5--------7--------------2--|--L--------5--------7--------5-5S-7--|
-----0--0-----0--0-----0--0--0--0-----|-----0--0-----0--0-----0--0----------|
--------------------------------------|-------------------------------------|


           PM               PM PM PM                                        
  H        E  Q    E     E  S  S  E  Q    Q    E      H         Q     Q     
----------------------|---------------------------|------------13----12----|
----------------------|---------------------------|------------------------|
--L-----------5----7--|--5-----------4----5----4--|--10--------------------|
--L-----------7----7--|--5-----------5----5----5--|------------------------|
-----------0----------|-----0--0--0---------------|------------------------|
----------------------|---------------------------|------------------------|


   H        E   Q     E      H        E   Q     E      W                 
--10--------L--------10--|--12--------L--13----12--|--12----------------|
---------------13--------|-------------------------|--------------------|
-------------------------|-------------------------|--------------------|
-------------------------|-------------------------|--------------------|
-------------------------|-------------------------|--------------------|
-------------------------|-------------------------|--------------------|


   H         Q     Q        H        E   Q     E      W                 
------------13----12----|--10--------L------------|--------------------|
------------------------|---------------13----12--|--13----------------|
--10--------------------|-------------------------|--------------------|
------------------------|-------------------------|--------------------|
------------------------|-------------------------|--------------------|
------------------------|-------------------------|--------------------|


  W                   W                   H         H          
-------------------|-------------------|----------------------|
--L----------------|--L----------------|--L-------------------|
-------------------|-------------------|-----------12S--------|
-------------------|-------------------|----------------------|
-------------------|-------------------|----------------------|
-------------------|-------------------|----------------------|


  S S S S E  E  S S S S E  E     S S S S E  E  S S Q    E   
------------------------------|----------------------------|
------------------------------|----------------------------|
----------5--7----------9--7--|----------5--7------5----4--|
----------5--7----------9--7--|----------5--7------5----4--|
--0-0-0-0-------0-0-0-0-------|--0-0-0-0-------0-0---------|
------------------------------|----------------------------|


  S S S S E  E  S S S S E  E     S S Q    E  E  Q    E     W                 
------------------------------|-------------------------|-------------------|
------------------------------|-------------------------|-------------------|
----------5--7----------9--7--|------5----5--4--5----4--|--2----------------|
----------5--7----------9--7--|------5----5--4--5----4--|--2----------------|
--0-0-0-0-------0-0-0-0-------|--0-0--------------------|-------------------|
------------------------------|-------------------------|-------------------|


  Q    E  Q    E  E  E     E  E  S S S S E  E  S S S S  
------------------------|------------------------------|
------------------------|------------------------------|
--5----4--5----4--5--4--|------------------------------|
--5----4--5----4--5--4--|------------------------------|
------------------------|------------------------------|
------------------------|--5--5--5-5-5-5-5--5--5-5-5-5-|


  E  E  S S S S E  E  S S S S    E  E  S S S S E  E  S S S S  
------------------------------|------------------------------|
------------------------------|------------------------------|
------------------------------|------------------------------|
------------------------------|------------------------------|
------------------------------|--3--3--3-3-3-3-3--3--3-3-3-3-|
--5--5--5-5-5-5-5--5--5-5-5-5-|------------------------------|


  E  Q    E  E.  E.  E     E  E  S S S S E  E  S S S S  
------------------------|------------------------------|
------------------------|------------------------------|
------------------------|------------------------------|
--5--5----7--5---4---3--|------------------------------|
--3--3----5--3---3---1--|------------------------------|
------------------------|--5--5--5-5-5-5-5--5--5-5-5-5-|


  E  E  S S S S E  E  S S S S    H        E  Q    E     H        E  Q    E   
------------------------------|----------------------|----------------------|
------------------------------|----------------------|----------------------|
------------------------------|----------------------|----------------------|
------------------------------|--------------5----7--|--5--------L----------|
------------------------------|--8--------L----------|--------------5----6--|
--5--5--5-5-5-5-5--5--5-5-5-5-|----------------------|--------------3----4--|


  E  E  S S S S E  E  S S S S    E  E  S S S S E  E  S S S S  
------------------------------|------------------------------|
------------------------------|------------------------------|
------------------------------|------------------------------|
------------------------------|------------------------------|
------------------------------|------------------------------|
--5--5--5-5-5-5-5--5--5-5-5-5-|--5--5--5-5-5-5-5--5--5-5-5-5-|


  E  E  S S S S E  E  S S S S    E  Q    E  E.  E.  E   
------------------------------|------------------------|
------------------------------|------------------------|
------------------------------|------------------------|
------------------------------|--5--5----7--5---4---3--|
--3--3--3-3-3-3-3--3--3-3-3-3-|--3--3----5--3---2---1--|
------------------------------|------------------------|


  E  E  S S S S E  E  S S S S    E  E  S S S S E  E  S S S S  
------------------------------|------------------------------|
------------------------------|------------------------------|
------------------------------|------------------------------|
------------------------------|------------------------------|
------------------------------|------------------------------|
--5--5--5-5-5-5-5--5--5-5-5-5-|--5--5--5-5-5-5-5--5--5-5-5-5-|


  H        E  Q    E     H        E  Q    E     S S S S E  E  S S S S E  E   
----------------------|----------------------|------------------------------|
----------------------|----------------------|------------------------------|
----------------------|----------------------|----------5--7----------9--7--|
--------------5----7--|--5--------L----------|----------5--7----------9--7--|
--8--------L----------|--------------5----6--|--0-0-0-0-------0-0-0-0-------|
----------------------|--------------3----4--|------------------------------|


  S S S S E  E  S S Q    E     S S S S E  E  S S S S E  E   
----------------------------|------------------------------|
----------------------------|------------------------------|
----------5--7------5----4--|----------5--7----------9--7--|
----------5--7------5----4--|----------5--7----------9--7--|
--0-0-0-0-------0-0---------|--0-0-0-0-------0-0-0-0-------|
----------------------------|------------------------------|


  S S Q    E  E  Q    E     S S S S E  E  S S S S E  E   
-------------------------|------------------------------|
-------------------------|------------------------------|
------5----5--4--5----4--|----------5--7----------9--7--|
------5----5--4--5----4--|----------5--7----------9--7--|
--0-0--------------------|--0-0-0-0-------0-0-0-0-------|
-------------------------|------------------------------|


  S S S S E  E  S S Q    E     S S S S E  E  S S S S E  E   
----------------------------|------------------------------|
----------------------------|------------------------------|
----------5--7------5----4--|----------5--7----------9--7--|
----------5--7------5----4--|----------5--7----------9--7--|
--0-0-0-0-------0-0---------|--0-0-0-0-------0-0-0-0-------|
----------------------------|------------------------------|


  S S Q    E  E  Q    E     E  E  S S S S E  E  S S S S  
-------------------------|------------------------------|
-------------------------|------------------------------|
------5----5--4--5----4--|------------------------------|
------5----5--4--5----4--|------------------------------|
--0-0--------------------|------------------------------|
-------------------------|--5--5--5-5-5-5-5--5--5-5-5-5-|


  E  E  S S S S E  E  S S S S    E  E  S S S S E  E  S S S S  
------------------------------|------------------------------|
------------------------------|------------------------------|
------------------------------|------------------------------|
------------------------------|------------------------------|
------------------------------|--3--3--3-3-3-3-3--3--3-3-3-3-|
--5--5--5-5-5-5-5--5--5-5-5-5-|------------------------------|


  E  Q    E  E.  E.  E     E  E  S S S S E  E  S S S S  
------------------------|------------------------------|
------------------------|------------------------------|
------------------------|------------------------------|
--5--5----7--5---4---3--|------------------------------|
--3--3----5--3---3---1--|------------------------------|
------------------------|--5--5--5-5-5-5-5--5--5-5-5-5-|


  E  E  S S S S E  E  S S S S    H        E  Q    E     H        E  Q    E   
------------------------------|----------------------|----------------------|
------------------------------|----------------------|----------------------|
------------------------------|----------------------|----------------------|
------------------------------|--------------5----7--|--5--------L----------|
------------------------------|--8--------L----------|--------------5----6--|
--5--5--5-5-5-5-5--5--5-5-5-5-|----------------------|--------------3----4--|


  E  E  S S S S E  E  S S S S    E  E  S S S S E  E  S S S S  
------------------------------|------------------------------|
------------------------------|------------------------------|
------------------------------|------------------------------|
------------------------------|------------------------------|
------------------------------|------------------------------|
--5--5--5-5-5-5-5--5--5-5-5-5-|--5--5--5-5-5-5-5--5--5-5-5-5-|


  E  E  S S S S E  E  S S S S    E  Q    E  E.  E.  E   
------------------------------|------------------------|
------------------------------|------------------------|
------------------------------|------------------------|
------------------------------|--5--5----7--5---4---3--|
--3--3--3-3-3-3-3--3--3-3-3-3-|--3--3----5--3---2---1--|
------------------------------|------------------------|


  E  E  S S S S E  E  S S S S    E  E  S S S S E  E  S S S S  
------------------------------|------------------------------|
------------------------------|------------------------------|
------------------------------|------------------------------|
------------------------------|------------------------------|
------------------------------|------------------------------|
--5--5--5-5-5-5-5--5--5-5-5-5-|--5--5--5-5-5-5-5--5--5-5-5-5-|


  H        E  Q    E     H        E  Q    E     W                 
----------------------|----------------------|-------------------|
----------------------|----------------------|-------------------|
----------------------|----------------------|-------------------|
--------------5----7--|--5--------L----------|-------------------|
--8--------L----------|--------------5----4--|--3----------------|
----------------------|--------------3----2--|--1----------------|


  W                   H        H           E  E  E  E  E  E  E  E   
-------------------|--------------------|--------------------------|
-------------------|--------------------|--------------------5--8--|
-------------------|--------------------|--------------5--7--------|
-------------------|--------------------|-----6--7--9--------------|
--5----------------|--7--------5--------|--3-----------------------|
--3----------------|--------------------|--------------------------|


  W                   W                   W                 
-------------------|-------------------|-------------------|
--6----------------|--8----------------|-------------------|
-------------------|-------------------|-------------------|
-------------------|-------------------|-------------------|
-------------------|-------------------|--5----------------|
-------------------|-------------------|--3----------------|


  H        H           H        E  Q    E     W                 
--------------------|----------------------|-------------------|
--------------------|----------------------|-------------------|
--------------------|----------------------|-------------------|
--------------------|----------------------|-------------------|
--7--------5--------|--3--------L--5----4--|--3----------------|
--------------------|--------------3----2--|--1----------------|


  W                   E  E  E  E  E  E  E   E      W                 
-------------------|-----------7--8--7--8--10--|--12----------------|
-------------------|--9-----9------------------|--------------------|
-------------------|-----9---------------------|--------------------|
-------------------|---------------------------|--------------------|
--5----------------|---------------------------|--------------------|
--3----------------|---------------------------|--------------------|


  PM PM PM PM PM PM               PM PM PM PM PM PM             
  E  E  S  S  S  S  E  Q    E     E  E  S  S  S  S  E  Q    E   
-------------------------------|-------------------------------|
-------------------------------|-------------------------------|
-------------------------------|-------------------------------|
-------------------------------|-------------------------------|
--------------------3--2----3--|--------------------2--0----2--|
--5--5--5--5--5--5-------------|--1--1--1--1--1--1-------------|


  PM PM PM PM PM PM               PM PM PM PM PM PM PM PM PM PM PM PM  
  E  E  S  S  S  S  E  Q    E     E  E  S  S  S  S  E  E  S  S  S  S   
-------------------------------|--------------------------------------|
-------------------------------|--------------------------------------|
-------------------------------|--------------------------------------|
-------------------------------|--------------------------------------|
--------------------5--3----2--|--3--3--3--3--3--3--2--2--2--2--2--2--|
--3--3--3--3--3--3-------------|--------------------------------------|


  PM PM PM PM PM PM               PM PM PM PM PM PM PM PM PM PM PM PM  
  E  E  S  S  S  S  E  Q    E     E  E  S  S  S  S  E  E  S  S  S  S   
-------------------------------|--------------------------------------|
-------------------------------|--------------------------------------|
-------------------------------|--------------------------------------|
-------------------------------|--------------------------------------|
--------------------3--2----3--|--------------------------------------|
--5--5--5--5--5--5-------------|--1--1--1--1--1--1--1--1--1--1--1--1--|


  PM PM PM PM PM PM PM PM PM PM PM PM    PM PM PM PM PM PM PM PM PM PM PM PM  
  E  E  S  S  S  S  E  E  S  S  S  S     E  E  S  S  S  S  E  E  S  S  S  S   
--------------------------------------|--------------------------------------|
--------------------------------------|--------------------------------------|
--------------------------------------|--------------------------------------|
--------------------------------------|--------------------------------------|
--------------------------------------|--------------------------------------|
--3--3--3--3--3--3--3--3--3--3--3--3--|--3--3--3--3--3--3--4--4--4--4--4--4--|


  PM PM PM PM PM PM               PM PM PM PM PM PM             
  E  E  S  S  S  S  E  Q    E     E  E  S  S  S  S  E  Q    E   
-------------------------------|-------------------------------|
-------------------------------|-------------------------------|
-------------------------------|-------------------------------|
-------------------------------|-------------------------------|
--------------------3--2----3--|--------------------2--0----2--|
--5--5--5--5--5--5-------------|--1--1--1--1--1--1-------------|


  PM PM PM PM PM PM               PM PM PM PM PM PM PM PM PM PM PM PM  
  E  E  S  S  S  S  E  Q    E     E  E  S  S  S  S  E  E  S  S  S  S   
-------------------------------|--------------------------------------|
-------------------------------|--------------------------------------|
-------------------------------|--------------------------------------|
-------------------------------|--------------------------------------|
--------------------5--3----2--|--3--3--3--3--3--3--2--2--2--2--2--2--|
--3--3--3--3--3--3-------------|--------------------------------------|


  PM PM PM PM PM PM               PM PM PM PM PM PM PM PM PM PM PM PM  
  E  E  S  S  S  S  E  Q    E     E  E  S  S  S  S  E  E  S  S  S  S   
-------------------------------|--------------------------------------|
-------------------------------|--------------------------------------|
-------------------------------|--------------------------------------|
-------------------------------|--------------------------------------|
--------------------3--2----3--|--------------------------------------|
--5--5--5--5--5--5-------------|--1--1--1--1--1--1--1--1--1--1--1--1--|


  PM PM PM PM PM PM PM PM PM PM PM PM    PM PM PM PM PM PM PM PM PM PM PM PM  
  E  E  S  S  S  S  E  E  S  S  S  S     E  E  S  S  S  S  E  E  S  S  S  S   
--------------------------------------|--------------------------------------|
--------------------------------------|--------------------------------------|
--------------------------------------|--------------------------------------|
--------------------------------------|--------------------------------------|
--------------------------------------|--------------------------------------|
--3--3--3--3--3--3--3--3--3--3--3--3--|--4--4--4--4--4--4--4--4--4--4--4--4--|


  W                   W                   W                 
-------------------|-------------------|-------------------|
-------------------|-------------------|-------------------|
-------------------|-------------------|-------------------|
-------------------|-------------------|-------------------|
--7----------------|--3----------------|--5----------------|
--5----------------|--1----------------|--3----------------|


   H         H           W                   W                 
----------------------|-------------------|-------------------|
----------------------|-------------------|-------------------|
----------------------|-------------------|-------------------|
----------------------|-------------------|-------------------|
--10--------10--------|--7----------------|--3----------------|
---8---------7--------|--5----------------|--1----------------|


  W                   H        H           W                 
-------------------|--------------------|-------------------|
-------------------|--------------------|-------------------|
-------------------|--------------------|-------------------|
-------------------|--------------------|-------------------|
--5----------------|--5--------7--------|--7----------------|
--3----------------|--3--------4--------|--5----------------|


  W                   W                    H         H         
-------------------|-------------------|----------------------|
-------------------|-------------------|----------------------|
-------------------|-------------------|----------------------|
-------------------|-------------------|----------------------|
--3----------------|--5----------------|--10--------10--------|
--1----------------|--3----------------|---8---------7--------|


  W                   W                   W                   W                 
-------------------|-------------------|-------------------|-------------------|
-------------------|-------------------|-------------------|-------------------|
-------------------|-------------------|-------------------|-------------------|
-------------------|-------------------|-------------------|-------------------|
--7----------------|--3----------------|--5----------------|--7----------------|
--5----------------|--1----------------|--3----------------|--4----------------|


     PM PM    PM PM    PM PM PM PM          PM PM    PM PM    PM PM          
  E  S  S  E  S  S  E  S  S  S  S  E     E  S  S  E  S  S  E  S  S  S S  E   
--------------------------------------|-------------------------------------|
--------------------------------------|-------------------------------------|
--2--------4--------5--------------2--|--L--------4--------5--------4-5S-7--|
--2--------5--------7--------------2--|--L--------5--------7--------5-5S-7--|
-----0--0-----0--0-----0--0--0--0-----|-----0--0-----0--0-----0--0----------|
--------------------------------------|-------------------------------------|


           PM               PM PM PM               
  H        E  Q    E     E  S  S  E  Q    Q    E   
----------------------|---------------------------|
----------------------|---------------------------|
--L-----------5----7--|--5-----------4----5----4--|
--L-----------7----7--|--5-----------5----5----5--|
-----------0----------|-----0--0--0---------------|
----------------------|---------------------------|


     PM PM    PM PM    PM PM PM PM          PM PM    PM PM    PM PM          
  E  S  S  E  S  S  E  S  S  S  S  E     E  S  S  E  S  S  E  S  S  S S  E   
--------------------------------------|-------------------------------------|
--------------------------------------|-------------------------------------|
--2--------4--------5--------------2--|--L--------4--------5--------4-5S-7--|
--2--------5--------7--------------2--|--L--------5--------7--------5-5S-7--|
-----0--0-----0--0-----0--0--0--0-----|-----0--0-----0--0-----0--0----------|
--------------------------------------|-------------------------------------|


           PM               PM PM PM              
  H        E  Q    E     E  S  S  E  Q    Q.      
----------------------|--------------------------|
----------------------|--------------------------|
--L-----------5----7--|--5-----------4----5------|
--L-----------7----7--|--5-----------5----5------|
-----------0----------|-----0--0--0--------------|
----------------------|--------------------------|


   E   E   E   E   E   E   E   E      E   E   E   E   E   E   E   E   
----------------------------------|----------------------------------|
--13--12------12--13--12--13--15--|--17--15------15--17--15--17--18--|
----------14----------------------|----------17----------------------|
----------------------------------|----------------------------------|
----------------------------------|----------------------------------|
----------------------------------|----------------------------------|


   W                   E  E  E  E  E  E  E  E     E  E  E  E  E  E  E  E   
--------------------|-----------0--------------|--------------------------|
--17----------------|--------1-----1-----3-----|--1--------0--------1-----|
--------------------|-----0-----------0-----0--|-----0--------0--------0--|
--------------------|--------------------------|--------2--------2--------|
--------------------|--3-----------------------|--------------------------|
--------------------|--------------------------|--------------------------|


  E  E  E  E  E  E  E  E     E  E  E  E  E  E  E  E   
-----------1--------0-----|--1--------0--------1-----|
--------1-----1-----------|-----1--------1--------1--|
-----2-----------2-----2--|--------2--------2--------|
--3-----------------------|--------------------------|
--------------------------|--------------------------|
--------------------------|--------------------------|


  E  E  E  E  E  E  E  E     E  E  E  E   E  E   E   E      W                 
-----------0--------------|--0--------------------------|--------------------|
--------0-----0-----3-----|-----0-----------------------|--------------------|
-----1-----------1-----1--|--------1--------------------|--------------------|
--2-----------------------|-----------2--10--9--10--12--|--10----------------|
--------------------------|-----------------------------|--------------------|
--------------------------|-----------------------------|--------------------|


  H         E   E   E   E      W                   H         E   E   E   E   
---------------------------|--------------------|---------------------------|
---------------------------|--------------------|---------------------------|
---------------------------|--------------------|---------------------------|
--L--------14--12------12--|--14----------------|--L--------14--12------14--|
-------------------15------|--------------------|-------------------15------|
---------------------------|--------------------|---------------------------|


   H.            Q        Q.      Q.       Q     
----------------------|-------------------------|
----------------------|-------------------------|
----------------------|--10------10b------14----|
--15------------14----|-------------------------|
----------------------|-------------------------|
----------------------|-------------------------|


   E   E   E   E   E   E   E   E      E   E   E   E   E   E   E   E   
----------------------------------|----------------------------------|
----------------------------------|----------------------------------|
----------------------14--12--14--|--16--14--16--17--16--17--19--17--|
--14--15--17--15--17--------------|----------------------------------|
----------------------------------|----------------------------------|
----------------------------------|----------------------------------|


   H           E   Q       E      Q.      E   E   E   E   E   
------------------------------|------------------------------|
------------------------------|--------------------------15--|
--19b~---------L--19br----17--|--16----------14--16--17------|
------------------------------|----------17------------------|
------------------------------|------------------------------|
------------------------------|------------------------------|


   Q.      Q       E   E   E      Q.      E    E   E  E   E   
------------------------------|------------------------------|
--17------17br----15----------|------------------------------|
----------------------17--16--|--17------17b~-----17-----16--|
------------------------------|------------------------------|
------------------------------|------------------------------|
------------------------------|------------------------------|


   Q.      E   E   E   E   E      Q.      E    E   E  E   E   
------------------------------|------------------------------|
----------------------13--15--|--17------17b~-----17-----15--|
--14----------14--16----------|------------------------------|
----------15------------------|------------------------------|
------------------------------|------------------------------|
------------------------------|------------------------------|


   Q.      E   E   Q     E      E   Q     H          E   
----------------------------|---------------------------|
----------------------------|------------20b~--------L--|
--16------16--17--16----17--|--19-----------------------|
----------------------------|------17-------------------|
----------------------------|---------------------------|
----------------------------|---------------------------|


   Q.      E   E.   E   E.      E.   E   E.   E.   E   E.   
----------------------------|--16-------16---17---19-------|
--20------18--17---18--20---|-------17----------------17---|
----------------------------|------------------------------|
----------------------------|------------------------------|
----------------------------|------------------------------|
----------------------------|------------------------------|


   Q.      E    E   E   E   E      Q.      E   E   E  E   E   
--20------20b~-----20~-----19--|--20------22b-----22-----20--|
-------------------------------|-----------------------------|
-------------------------------|-----------------------------|
-------------------------------|-----------------------------|
-------------------------------|-----------------------------|
-------------------------------|-----------------------------|


   E   S  S  S  S  S  S  S  S  S  S  S  S  S  S  
--13--13-13-15-13-13-13-17-13-13-13-15-13-13-13-|
------------------------------------------------|
------------------------------------------------|
------------------------------------------------|
------------------------------------------------|
------------------------------------------------|


   S  S  S  S  S  S  S  S  S  S  S  S  S  S  S  S  
--20-13-13-13-19-13-13-13-17-13-13-13-19-13-13-13-|
--------------------------------------------------|
--------------------------------------------------|
--------------------------------------------------|
--------------------------------------------------|
--------------------------------------------------|


   S  S S S  S  S S S  S  S S S  S  S S S  
--19-20-0-0-17-19-0-0-15-17-0-0-13-15-0-0-|
------------------------------------------|
------------------------------------------|
------------------------------------------|
------------------------------------------|
------------------------------------------|


   S  S S S  S  S S S S  S S S S S S S     H         E   E   E   E   
--12-13-0-0-10-12-0-0-8-10-0-0-7-8-0-0-|----------------------------|
---------------------------------------|----------------12--13--15--|
---------------------------------------|--12b--------L--------------|
---------------------------------------|----------------------------|
---------------------------------------|----------------------------|
---------------------------------------|----------------------------|


                                                 PM  PM  PM  
   E   E   E   Q     E   E   E      H        E   E   E   E   
--12----------------------------|---------------------------|
------15--13--12----12--13--15--|---------------------------|
--------------------------------|--12--------L----------12--|
--------------------------------|-------------------14------|
--------------------------------|---------------15----------|
--------------------------------|---------------------------|


   PM  PM  PM  PM  PM  PM          
   E   E   E   E   E   E   E   E   
----------------------------------|
--------------------------13--15--|
--13------13--16--13--16----------|
------14--------------------------|
----------------------------------|
----------------------------------|


   T          T          T          T          T          T          T          
   |---3---|  |---3---|  |---3---|  |---3---|  |---3---|  |---3---|  |---3---|  
   S   S   S  S   S   S  S   S   S  S   S   S  S   S   S  S   S   S  S   S   S  
--------------------------------------------------------------------------------
--18p-10h-13-18p-10h-13-18p-10h-13-18p-10h-13-18p-10h-13-18p-10h-13-18p-10h-13-1
--------------------------------------------------------------------------------
--------------------------------------------------------------------------------
--------------------------------------------------------------------------------
--------------------------------------------------------------------------------


   T          T          T          T          T          T          T          
   |---3---|  |---3---|  |---3---|  |---3---|  |---3---|  |---3---|  |---3---|  
   S   S   S  S   S   S  S   S   S  S   S   S  S   S   S  S   S   S  S   S   S  
--------------------------------------------------------------------------------
--19p-10h-15-19p-10h-15-19p-10h-15-19p-10h-15-19p-10h-15-19p-10h-15-19p-10h-15-1
--------------------------------------------------------------------------------
--------------------------------------------------------------------------------
--------------------------------------------------------------------------------
--------------------------------------------------------------------------------


   T          T          T          T          T          T          T          
   |---3---|  |---3---|  |---3---|  |---3---|  |---3---|  |---3---|  |---3---|  
   S   S   S  S   S   S  S   S   S  S   S   S  S   S   S  S   S   S  S   S   S  
--------------------------------------------------------------------------------
--20p-12h-15-20p-12h-15-20p-12h-15-20p-12h-15-20p-12h-15-20p-12h-15-20p-12h-15-2
--------------------------------------------------------------------------------
--------------------------------------------------------------------------------
--------------------------------------------------------------------------------
--------------------------------------------------------------------------------


   T          T          T          T          T      T      
   |---3---|  |---3---|  |---3---|  |---3---|                
   S   S   S  S   S   S  S   S   S  S   S   S  Q      Q      
------------------------------------------------------------|
--21p-12h-17-21p-12h-17-21p-12h-17-21p-12h-17-21/----21/----|
------------------------------------------------------------|
------------------------------------------------------------|
------------------------------------------------------------|
------------------------------------------------------------|


   Q.       E   E.   E   E.      E   Q     Q     E   E   E   
--------------------17--20---|--19--17--------------17--19--|
--18~----------18------------|------------20----20----------|
-----------17----------------|------------------------------|
-----------------------------|------------------------------|
-----------------------------|------------------------------|
-----------------------------|------------------------------|


   Q.       Q     Q     E        E   E   E   E   E   E   E   E   
--20~------------20----19br--|---L------------------------------|
-----------17----------------|------20--------------------------|
-----------------------------|----------19--17--16--17--16------|
-----------------------------|------------------------------17--|
-----------------------------|----------------------------------|
-----------------------------|----------------------------------|


                                         PM  PM  PM  PM  PM  PM        
                   |---3---|                                           
   Q.      E   E   S   S   S  E   E      E   E   E   E   E   E   Q     
-------------------------------------|--------------------------------|
-------------------------------------|--------------------------------|
-------------------------------------|--------------------------14----|
--15------14--15--14h-15p-14---------|--------------14--15--17--------|
-----------------------------17--15--|--14--15--17--------------------|
-------------------------------------|--------------------------------|


   S  S  S  S  S  S  S  S  S  S  S  S  S  S  S  S  
--------------------------------------------------|
--------------------------------------12-12-10-10-|
--12-12-10-10-12-12-14-14-12-12-14-14-------------|
--------------------------------------------------|
--------------------------------------------------|
--------------------------------------------------|


   S  S  S  S  S  S  S  S  S  S  S  S  S  S  S  S     W                   
--------------------------10-10-12-12-13-13-15-15-|--13b~----------------|
--12-12-13-13-12-12-13-13-------------------------|----------------------|
--------------------------------------------------|----------------------|
--------------------------------------------------|----------------------|
--------------------------------------------------|----------------------|
--------------------------------------------------|----------------------|


   W                    W                      W                   
---L----------------|--19b~----------------|--19b~----------------|
--------------------|----------------------|----------------------|
--------------------|----------------------|----------------------|
--------------------|----------------------|----------------------|
--------------------|----------------------|----------------------|
--------------------|----------------------|----------------------|


  PM PM PM PM       PM PM PM PM          PM PM PM PM       PM PM          
  S  S  S  S  E  E  S  S  S  S  E  E     S  S  S  S  E  E  S  S  Q    E   
--------------------------------------|----------------------------------|
--------------------------------------|----------------------------------|
--------------5--7--------------9--7--|--------------5--7--------5----4--|
--------------5--7--------------9--7--|--------------5--7--------5----4--|
--0--0--0--0--------0--0--0--0--------|--0--0--0--0--------0--0----------|
--------------------------------------|----------------------------------|


  PM PM PM PM       PM PM PM PM          PM PM                     
  S  S  S  S  E  E  S  S  S  S  E  E     S  S  Q    E  E  Q    E   
--------------------------------------|---------------------------|
--------------------------------------|---------------------------|
--------------5--7--------------9--7--|--------5----5--4--5----4--|
--------------5--7--------------9--7--|--------5----5--4--5----4--|
--0--0--0--0--------0--0--0--0--------|--0--0---------------------|
--------------------------------------|---------------------------|


  W                   W                   W                 
-------------------|-------------------|-------------------|
-------------------|-------------------|-------------------|
--2----------------|-------------------|-------------------|
--2----------------|-------------------|-------------------|
-------------------|--3----------------|--5----------------|
-------------------|--1----------------|--3----------------|


  H        H           H        E  Q    E     W                 
--------------------|----------------------|-------------------|
--------------------|----------------------|-------------------|
--------------------|----------------------|-------------------|
--------------------|----------------------|-------------------|
--7--------5--------|--3--------L--5----4--|--3----------------|
--------------------|--------------3----2--|--1----------------|


  W                   W                   E  E  E  E  E  E  E  E   
-------------------|-------------------|--------------------------|
-------------------|-------------------|--------------------5--8--|
-------------------|-------------------|--------------5--7--------|
-------------------|--5----------------|-----6--7--9--------------|
--5----------------|--3----------------|--------------------------|
--3----------------|-------------------|--------------------------|


  W                   W                   H        H         
-------------------|-------------------|--------------------|
--6----------------|--8----------------|--------------------|
-------------------|-------------------|--------------------|
-------------------|-------------------|--------------------|
-------------------|-------------------|--7--------5--------|
-------------------|-------------------|--------------------|


  H        E  Q    E     W                   W                 
----------------------|-------------------|-------------------|
----------------------|-------------------|-------------------|
----------------------|-------------------|-------------------|
----------------------|-------------------|-------------------|
--3--------L--5----4--|--3----------------|--5----------------|
--------------3----2--|--1----------------|--3----------------|


  PM PM PM PM PM PM PM PM PM PM PM PM    PM PM PM PM PM PM PM PM PM PM PM PM  
  E  E  S  S  S  S  E  E  S  S  S  S     E  E  S  S  S  S  E  E  S  S  S  S   
--------------------------------------|--------------------------------------|
--------------------------------------|--------------------------------------|
--------------------------------------|--------------------------------------|
--------------------------------------|--------------------------------------|
--------------------------------------|--------------------------------------|
--0--0--0--0--0--0--0--0--0--0--0--0--|--0--0--0--0--0--0--0--0--0--0--0--0--|


  PM PM PM PM PM PM PM PM PM PM PM PM  
  E  E  S  S  S  S  E  E  S  S  S  S   
--------------------------------------|
--------------------------------------|
--------------------------------------|
--------------------------------------|
--------------------------------------|
--5--5--5--5--5--5--5--5--5--5--5--5--|


     PM PM PM PM    PM PM PM PM    PM PM  
  E  S  S  S  S  E  S  S  S  S  E  S  S   
-----------------------------------------|
-----------------------------------------|
--4--------------5--------------4--------|
--5--------------7--------------5--------|
-----0--0--0--0-----0--0--0--0-----0--0--|
-----------------------------------------|


  PM PM PM PM PM PM PM PM PM PM PM PM  
  E  E  S  S  S  S  E  E  S  S  S  S   
--------------------------------------|
--------------------------------------|
--------------------------------------|
--------------------------------------|
--------------------------------------|
--1--1--1--1--1--1--1--1--1--1--1--1--|


     PM PM PM PM    PM PM PM PM    PM PM                      
  E  S  S  S  S  E  S  S  S  S  E  S  S     W                 
-----------------------------------------|-------------------|
-----------------------------------------|-------------------|
--5--------------7--------------5--------|-------------------|
--7--------------9--------------7--------|-------------------|
-----0--0--0--0-----0--0--0--0-----0--0--|--5----------------|
-----------------------------------------|--3----------------|


  W                   W                   W                 
-------------------|-------------------|-------------------|
-------------------|-------------------|-------------------|
-------------------|-------------------|-------------------|
-------------------|-------------------|-------------------|
--7----------------|--7----------------|--3----------------|
--4----------------|--5----------------|--1----------------|


  H        E  Q    E     H        H           W                 
----------------------|--------------------|-------------------|
----------------------|--------------------|-------------------|
----------------------|--------------------|-------------------|
----------------------|--------------------|-------------------|
--5--------L--7----8--|--7--------5--------|--7----------------|
--3--------L----------|--------------------|--5----------------|


  W                   W                   H        H         
-------------------|-------------------|--------------------|
-------------------|-------------------|--------------------|
-------------------|-------------------|--------------------|
-------------------|-------------------|--------------------|
--3----------------|--5----------------|--5--------7--------|
--1----------------|--3----------------|--3--------4--------|


  PM PM PM PM PM PM               PM PM PM PM PM PM             
  E  E  S  S  S  S  E  Q    E     E  E  S  S  S  S  E  Q    E   
-------------------------------|-------------------------------|
-------------------------------|-------------------------------|
-------------------------------|-------------------------------|
-------------------------------|-------------------------------|
--------------------3--2----3--|--------------------2--0----2--|
--5--5--5--5--5--5-------------|--1--1--1--1--1--1-------------|


  PM PM PM PM PM PM               PM PM PM PM PM PM PM PM PM PM PM PM  
  E  E  S  S  S  S  E  Q    E     E  E  S  S  S  S  E  E  S  S  S  S   
-------------------------------|--------------------------------------|
-------------------------------|--------------------------------------|
-------------------------------|--------------------------------------|
-------------------------------|--------------------------------------|
--------------------5--3----2--|--3--3--3--3--3--3--2--2--2--2--2--2--|
--3--3--3--3--3--3-------------|--------------------------------------|


  PM PM PM PM PM PM               PM PM PM PM PM PM PM PM PM PM PM PM  
  E  E  S  S  S  S  E  Q    E     E  E  S  S  S  S  E  E  S  S  S  S   
-------------------------------|--------------------------------------|
-------------------------------|--------------------------------------|
-------------------------------|--------------------------------------|
-------------------------------|--------------------------------------|
--------------------3--2----3--|--------------------------------------|
--5--5--5--5--5--5-------------|--1--1--1--1--1--1--1--1--1--1--1--1--|


  PM PM PM PM PM PM PM PM PM PM PM PM                                
  E  E  S  S  S  S  E  E  S  S  S  S     E  E  E  E   E  E   E   E   
--------------------------------------|-----------7--10--7--10--13--|
--------------------------------------|--9-----9--------------------|
--------------------------------------|-----9-----------------------|
--------------------------------------|-----------------------------|
--------------------------------------|-----------------------------|
--3--3--3--3--3--3--3--3--3--3--3--3--|-----------------------------|


   W                    W                    W                 
--12----------------|--10----------------|--12----------------|
--------------------|--------------------|--------------------|
--------------------|--------------------|--------------------|
--------------------|--------------------|--------------------|
--------------------|--------------------|--------------------|
--------------------|--------------------|--------------------|


  W                   W                   W                 
--L----------------|-------------------|-------------------|
-------------------|-------------------|-------------------|
-------------------|-------------------|-------------------|
-------------------|-------------------|-------------------|
-------------------|--3----------------|--5----------------|
-------------------|--1----------------|--3----------------|


  E  Q.         Q     E   E     H         Q    Q       H        E  Q    E   
------------10g12----10--12--|--L--------10----8----|--7--------L----------|
-----------------------------|----------------------|----------------------|
--9--9-----------------------|----------------------|--------------9----7--|
-----------------------------|----------------------|----------------------|
-----------------------------|----------------------|----------------------|
-----------------------------|----------------------|----------------------|


  W                   E  Q.         Q     E   E     H         Q     Q     
-------------------|------------10g12----10--12--|--L--------12----13----|
-------------------|-----------------------------|-----------------------|
--9----------------|--9--9-----------------------|-----------------------|
-------------------|-----------------------------|-----------------------|
-------------------|-----------------------------|-----------------------|
-------------------|-----------------------------|-----------------------|


   Q.      H        E      H         H            H         Q     E   E   
--12------10--------L--|--12--------13--------|--12----------------------|
-----------------------|----------------------|------------13----12--13--|
-----------------------|----------------------|--------------------------|
-----------------------|----------------------|--------------------------|
-----------------------|----------------------|--------------------------|
-----------------------|----------------------|--------------------------|


  H         Q     Q        H        E   Q     E      H         H         
-----------------------|---------------------10--|--12--------10--------|
--L--------12----13----|--15--------L--13--------|----------------------|
-----------------------|-------------------------|----------------------|
-----------------------|-------------------------|----------------------|
-----------------------|-------------------------|----------------------|
-----------------------|-------------------------|----------------------|


   H         Q     E   E     H         Q     Q       E   E  E  E  E  E  E  E   
------------12----10--12--|--L--------12----13----|---------------------------|
--13----------------------|-----------------------|---------------8--------8--|
--------------------------|-----------------------|------------7--------7-----|
--------------------------|-----------------------|--9------9--------9--------|
--------------------------|-----------------------|-----10--------------------|
--------------------------|-----------------------|---------------------------|


  E  E  E  E   E  E   E   E      W                  
-----------7--10--7--10--13--|--17~----------------|
--9-----9--------------------|---------------------|
-----9-----------------------|---------------------|
-----------------------------|---------------------|
-----------------------------|---------------------|
-----------------------------|---------------------|


     PM PM    PM PM    PM PM                     PM          
  E  S  S  E  S  S  E  S  S  S S  E     H        E  Q    E   
-------------------------------------|----------------------|
-------------------------------------|----------------------|
--2--------4--------5--------4-5S-7--|--L-----------5----7--|
--2--------5--------7--------5-5S-7--|--L-----------7----7--|
-----0--0-----0--0-----0--0----------|-----------0----------|
-------------------------------------|----------------------|


     PM PM PM                    PM PM    PM PM    PM PM PM PM     
  E  S  S  E  Q    Q    E     E  S  S  E  S  S  E  S  S  S  S  E   
---------------------------|--------------------------------------|
---------------------------|--------------------------------------|
--5-----------4----5----4--|--2--------4--------5--------------2--|
--5-----------5----5----5--|--2--------5--------7--------------2--|
-----0--0--0---------------|-----0--0-----0--0-----0--0--0--0-----|
---------------------------|--------------------------------------|


     PM PM    PM PM    PM PM                     PM          
  E  S  S  E  S  S  E  S  S  S S  E     H        E  Q    E   
-------------------------------------|----------------------|
-------------------------------------|----------------------|
--L--------4--------5--------4-5S-7--|--L-----------5----7--|
--L--------5--------7--------5-5S-7--|--L-----------7----7--|
-----0--0-----0--0-----0--0----------|-----------0----------|
-------------------------------------|----------------------|


     PM PM PM                                               
  E  S  S  E  Q    Q    E      E  E   E   E  E   E  E   E   
---------------------------|-------------------------------|
---------------------------|-------------------------------|
--5-----------4----5----4--|-----------------9------9--10--|
--5-----------5----5----5--|--10--9--10--12-----12---------|
-----0--0--0---------------|-------------------------------|
---------------------------|-------------------------------|


   E   E   E   E   E   E   E   E      E   E   E   E   E   E   E   E   
----------------------------------|--10------10--12--13--12--10--12--|
--------------10--12--10--12--13--|------13--------------------------|
--12--10--12----------------------|----------------------------------|
----------------------------------|----------------------------------|
----------------------------------|----------------------------------|
----------------------------------|----------------------------------|


   E   E   E   E   E   E   E   E      H         Q      Q     
--13--12--13--15--17--15--17--19--|-------------------------|
----------------------------------|------------16b----17----|
----------------------------------|--14---------------------|
----------------------------------|-------------------------|
----------------------------------|-------------------------|
----------------------------------|-------------------------|


   H        E   Q     E      H         Q      Q        H        E   Q     E   
-------------------------|------------14b----15----|-------------------------|
--15--------L--13----15--|--16---------------------|--18--------L--16----18--|
-------------------------|-------------------------|-------------------------|
-------------------------|-------------------------|-------------------------|
-------------------------|-------------------------|-------------------------|
-------------------------|-------------------------|-------------------------|


   H         Q      Q        W                    W                 
------------17b----18----|--16----------------|--18----------------|
--19---------------------|--------------------|--------------------|
-------------------------|--------------------|--------------------|
-------------------------|--------------------|--------------------|
-------------------------|--------------------|--------------------|
-------------------------|--------------------|--------------------|


   W                   W                   W                 
---L----------------|--L----------------|--L----------------|
---L----------------|--L----------------|--L----------------|
---L----------------|--L----------------|--L----------------|
--------------------|-------------------|-------------------|
--------------------|-------------------|-------------------|
--------------------|-------------------|-------------------|


  W                   W                   W                   W                 
--L----------------|--L----------------|--L----------------|-------------------|
--L----------------|--L----------------|--L----------------|-------------------|
--L----------------|--L----------------|--L----------------|-------------------|
-------------------|-------------------|-------------------|-------------------|
-------------------|-------------------|-------------------|-------------------|
-------------------|-------------------|-------------------|-------------------|





Duration Legend
---------------
W - whole
H - half
Q - quarter
E - 8th
S - 16th
T - 32nd
X - 64th
. - note dotted
|-n-|  - n-tuplets


Tablature Legend
----------------
L - tied note
x - dead note
g - grace note
(n) - ghost note
> - accentuded note
NH - natural harmonic
AH - artificial harmonic
TH - tapped harmonic
SH - semi harmonic
PH - pitch harmonic
h - hammer on
p - pull off
b - bend
br - bendRelease
pb - preBend
pbr - preBendRelease
brb - bendReleaseBend
\n/ - tremolo bar dip
\n - tremolo bar dive
-/n - tremolo bar Release up
/n\ - tremolo bar inverted dip
/n - tremolo bar return
-\n - tremolo bar Release down
S - shift slide
s - legato slide
/ -  slide into from below or out of upwards
\ -  slide into from above or out of downwards
~ - vibrato
W - wide vibrato
tr - trill
TP - tremolo picking
T - tapping
S - slap
P - pop
< - fade in
^ - brush up
v - brush down

            
            
Suggest correction
Creating personal tab
Creating personal tab
You can edit any tab online and save it as your Personal.

You can edit, replace or remove any tab part or add personal notes – all changes will be seen only by you.

Personal tabs can be accessed anytime from any device, even offline.
Learn more »
Give kudos to tab author, rate the tab!
1 2 3 4 5
comments
print report bad tab
guest
You may want to rate the tab now too:
select rating
Wanna post a correction for this tab? Suggest correction