Oops, an error
Loading. Please wait.

X bass

version 1
version 1

Whole song

Interactive

by X Japan
3,728 views 3 this week
no commentswrite comment
1 2 3 4 5
3 more votes to show rating
add to favorites
×
Save as Personal and add changes to this tab that will be seen only by you. Learn more ›
×
You can save this tab as Personal to edit and correct it or add notes. All changes will be seen only by you. Learn more »
launch autoscroll
font size
0
reset
guitar tuner
backing track
0:00
0:00
edit
Autoscroll
slow
fast
+/-
esc
set tempo
stop
#----------------------------------PLEASE NOTE---------------------------------#
#This file is the author's own work and represents their interpretation of the #
#song. You may only use this file for private study, scholarship, or research. #
#------------------------------------------------------------------------------#

X (Bassline)
As recorded by X Japan
(From the 1989 Album BLUE BLOOD)

Transcribed by MajinStylee
	

Words and Music by Yoshiki

Gtr I (Eb Ab Db Gb) - 'Bass'
Gtr II (Eb Ab Db Gb Bb Eb) - 'Vocals'

 Intro. 1
  Q=178
 4/4
  Gtr I
  W          +H     E. E. E   W          +H     E. E. E
|----------|----------------|----------|--------3--3--5--|
|-0--------|-(0)------------|-0--------|-(0)-------------|
|----------|--------1--1--3-|----------|-----------------|
|----------|----------------|----------|-----------------|


  W          +H     E. E. E   W          +H     E. E. E
|-7--------|-(7)------------|----------|----------------||
|----------|----------------|-0--------|-(0)------------||
|----------|--------1--1--3-|----------|--------1--1--3-||
|----------|----------------|----------|----------------||


 Intro. 2
  E E E E E E E E   E E E E E E E E   E E E E E E E E   E Q.   E. E. E
|-----------------|-----------------|-----------------|-----------------|
|-----------------|-----------------|-----------------|-----------------|
|-5-5-5-5-5-5-5-5-|-5-5-5-5-5-5-5-5-|-5-5-5-5-5-5-5-5-|-5-1----3--1--3--|
|-----------------|-----------------|-----------------|-----------------|


  E E E E E E E E   E E E E E E E E   E E E E E E E E   E Q.   E. E. E
|-----------------|-----------------|-----------------|-----------------|
|-----------------|-----------------|-----------------|-----------------|
|-5-5-5-5-5-5-5-5-|-5-5-5-5-5-5-5-5-|-5-5-5-5-5-5-5-5-|-5-1----3--1--3--|
|-----------------|-----------------|-----------------|-----------------|


  E E E E E E E E   E E E E E E E E   E E E E E E E E   E Q.   E. E. E
|-----------------|-----------------|-----------------|-----------------|
|-----------------|-----------------|-----------------|-----------------|
|-5-5-5-5-5-5-5-5-|-5-5-5-5-5-5-5-5-|-5-5-5-5-5-5-5-5-|-5-1----3--1--3--|
|-----------------|-----------------|-----------------|-----------------|


  E E E E E E E E   E E E E E E E E   E E E E E E E E
|-----------------|-----------------|-----------------|
|-----------------|-----------------|-----------------|
|-5-5-5-5-5-5-5-5-|-5-5-5-5-5-5-5-5-|-5-5-5-5-5-5-5-5-|
|-----------------|-----------------|-----------------|


  E Q.   E. E. E   H.       Q    H    +E  E Q
|----------------|-------------|---------------||
|----------------|-------------|-7----(7)------||
|-5-1----3--1--3-|-0-------/7--|----------0-3--||
|----------------|-------------|---------------||


 A
  E E E E E E E E    E  E E E E E E E   E E E E E E E E    E  E E E E.   E. E
|-----------------|-------------------|-----------------|-----------3---------|
|-----------------|-------------------|-----------------|---------------------|
|-5-5-5-5-5-5-5-5-|--5--5-5-5-5-5-5-5-|-1-1-1-1-1-1-1-1-|--1--1-1-1------1--2-|
|-----------------|-------------------|-----------------|---------------------|
|
| Gtr II
| Q   Q   E Q   E   +Q    Q   E Q   E   Q   Q   E E E E   +H        E  Q    E
|-5---5---3-1---1-|-(1)---1---0-------|-----1---0-1-0---|---------------------|
|-----------------|-------------3---3s|=6-------------3-|-(3)----------3----3-|
|-----------------|-------------------|-----------------|---------------------|
|-----------------|-------------------|-----------------|---------------------|
|-----------------|-------------------|-----------------|---------------------|
|-----------------|-------------------|-----------------|---------------------|


  E E E E E E E E   E E E E E E E E   E E E E E E E E   E E E E E E Q
|-----------------|-----------------|-----------------|----------------|
|-----------------|-----------------|-----------------|----------------|
|-3-3-3-3-3-3-3-3-|-3-3-3-3-3-3-3-3-|-1-1-1-1-1-1-1-1-|-0-0-0-0-0-0-3--|
|-----------------|-----------------|-----------------|----------------|
|
| Q   Q   H         Q   Q   E Q   E   Q   Q   E Q   E   H       H
|-0---0-----------|-0---0-----0---0s|=1---1---1-1---1s|=0--------------|
|-----------------|---------3-------|-----------------|----------------|
|-----------------|-----------------|-----------------|----------------|
|-----------------|-----------------|-----------------|----------------|
|-----------------|-----------------|-----------------|----------------|
|-----------------|-----------------|-----------------|----------------|


  E E E E E E E E   E E E E E E E E
|-----------------|-----------------|
|-----------------|-------7-5-------|
|-5-5-5-5-5-5-5-5-|-5---5-----8-7-5-|
|-----------------|---5-------------|
|
| Q   Q   E Q   E   Q   Q   E Q   E
|-5---5---3-1---0s|=1---1---0-------|
|-----------------|-----------3---3s|
|-----------------|-----------------|
|-----------------|-----------------|
|-----------------|-----------------|
|-----------------|-----------------|


  E E E E E.   E.   E    E  E E E E.   E. E
|--------------3------|-----------3---------|
|---------------------|---------------------|
|-1-1-1-1-1---------1-|--1--1-1-1------1--2-|
|---------------------|---------------------|
|
| Q   Q   E  E    E E   +H        E  Q    E
|-----1---0--1----0---|---------------------|
|-6-----------------3-|-(3)----------3----3-|
|---------------------|---------------------|
|---------------------|---------------------|
|---------------------|---------------------|
|---------------------|---------------------|


  E E E E E E E E   E E E E E E E E   E E E E E E E E    E  E E E Q  Q
|-----------------|-----------------|-----------------|-----------------||
|-----------------|-------5-3-2-----|-----------------|-----------------||
|-3-3-3-3-3-3-3-3-|-3-3-3-------3-4-|-5-5-5-5-5-5-5-5-|--5--------5--3--||
|-----------------|-----------------|-----------------|-----3-4-5-------||
|
| Q   Q   H         Q   Q   E Q   E   Q   Q   E E E E   +H        H
|-0---0-----------|-0---0-----0---0s|=1---1---0-1-0---|-----------------||
|-----------------|---------3-------|---------------3-|-(3)-------------||
|-----------------|-----------------|-----------------|-----------------||
|-----------------|-----------------|-----------------|-----------------||
|-----------------|-----------------|-----------------|-----------------||
|-----------------|-----------------|-----------------|-----------------||


 B
  Q.   E E.   E. E   Q  E E E.    E. E   H    E.   E. E   E. E. Q   E E E
|--------3---------|------5s7-----5--3-|------0----0--2-|------------------|
|------3-----------|----2--------------|----------------|-0-----0----------|
|-1-----------1--2-|-3-----------------|-0--------------|----0------3-1-0--|
|------------------|-------------------|----------------|------------------|
|
| H      E  Q    E   Q  Q   E  Q.        H    E  Q    E   H       H
|-1------1--1----1s|=3--3---1--0-------|-0----0--0----0s|=1----------------|
|------------------|-------------------|----------------|------------------|
|------------------|-------------------|----------------|------------------|
|------------------|-------------------|----------------|------------------|
|------------------|-------------------|----------------|------------------|
|------------------|-------------------|----------------|------------------|


  E E E E E E E E    E  E E E E E E E   E E E E E E E E    E E S  S E H
|-----------------|-------------------|-----------------|-------------------|
|-----------------|-----------5-------|-----------------|----7----7---7\----|
|-----------------|-----3-4-5---5-----|-----------------|-/7----------------|
|-3-3-3-3-3-3-3-3-|--3------------3-4-|-5-5-5-5-5-5-5-5-|-------------------|
|
| Q   Q   E Q   E   +Q    Q   E Q   E   Q   Q   E Q   E    Q   H.
|-----------------|-------------------|-----0---0-1---1s|==0----------------|
|-3---3---3-3---3-|-(3)---3---2-3---3s|=5---------------|-------------------|
|-----------------|-------------------|-----------------|-------------------|
|-----------------|-------------------|-----------------|-------------------|
|-----------------|-------------------|-----------------|-------------------|
|-----------------|-------------------|-----------------|-------------------|


  Q.   E E.   E. E    Q   E  E  E.   E.  E   H    E.   E. E   E. E. Q   E E E
|------------------|--------12-10----9-----|------0----1--2-|------------------|
|--------8----7--8-|-10-----------------10-|----------------|-0-----3---2-0----|
|------8-----------|-----10----------------|-0--------------|----0----------3--|
|-6----------------|-----------------------|----------------|------------------|
|
| H      E  Q    E    Q   Q     E  Q     E   H    E  Q    E   H       H
|-1------0--1----1s|==3---3-----1--0-------|------0--0----0s|=1----------------|
|------------------|---------------------3s|=5--------------|------------------|
|------------------|-----------------------|----------------|------------------|
|------------------|-----------------------|----------------|------------------|
|------------------|-----------------------|----------------|------------------|
|------------------|-----------------------|----------------|------------------|


  E E E E E E E E    E  E E E E E E E   E E E E E E E E   E E E E E E  E E
|-----------------|-------------------|-----------------|---------2-3--4-5-||
|-----------------|-------------------|-----------------|---2-3-5----------||
|-1-1-1-1-1-1-1-1-|--1--1-1-1-1-1-1-1-|-3-3-3-3-3-------|-3----------------||
|-----------------|-------------------|-----------0-1-3-|------------------||
|
| Q   Q   E Q   E   +Q    Q   Q   Q     Q   Q   E Q   E   H       Q    Q
|-----------------|-------------------|-0---0---0-1---1s|=3-----------10---||
|-3---3---3-3---3-|-(3)---3---2---3---|-----------------|------------------||
|-----------------|-------------------|-----------------|------------------||
|-----------------|-------------------|-----------------|------------------||
|-----------------|-------------------|-----------------|------------------||
|-----------------|-------------------|-----------------|------------------||


 C
   E  E E E E E E E   E E E E E E E E   E E E E E E E E   E Q.   E. E. E
|-------------------|-----------------|-----------------|-----------------|
|--0--0-0-0-0-0-0-0-|-0-0-0-0-0-0-0-0-|-0-0-0-0-0-0-0-0-|-0---------------|
|-------------------|-----------------|-----------------|---1----3--1--3--|
|-------------------|-----------------|-----------------|-----------------|
|
|  H        H         W                 W                 W
|-10\---------------|-----------------|-----------------|-----------------|
|-------------------|-----------------|-----------------|-----------------|
|-------------------|-----------------|-----------------|-----------------|
|-------------------|-----------------|-----------------|-----------------|
|-------------------|-----------------|-----------------|-----------------|
|-------------------|-----------------|-----------------|-----------------|


  E E E E E E E E   E E E E E E E E   E E E E E E E E   E Q.   E. E. E
|-----------------|-----------------|-----------------|-----------------||
|-0-0-0-0-0-0-0-0-|-0-0-0-0-0-0-0-0-|-0-0-0-0-0-0-0-0-|-0---------------||
|-----------------|-----------------|-----------------|---1----3--1--3--||
|-----------------|-----------------|-----------------|-----------------||


 A-2
  E E E E E E E E    E  E E E E E E E   E E E E E E E E    E  E E E E.   E. E
|-----------------|-------------------|-----------------|-----------3---------|
|-----------------|-------------------|-----------------|---------------------|
|-5-5-5-5-5-5-5-5-|--5--5-5-5-5-5-5-5-|-1-1-1-1-1-1-1-1-|--1--1-1-1------1--2-|
|-----------------|-------------------|-----------------|---------------------|
|
| Gtr II
| Q   Q   E Q   E   +Q    Q   E Q   E   Q   Q   E E E E   +H        E  Q    E
|-5---5---3-1---1-|-(1)---1---0-------|-----1---0s1-0---|---------------------|
|-----------------|-------------3---3s|=6-------------3-|-(3)----------3----3-|
|-----------------|-------------------|-----------------|---------------------|
|-----------------|-------------------|-----------------|---------------------|
|-----------------|-------------------|-----------------|---------------------|
|-----------------|-------------------|-----------------|---------------------|


  E E E E E E E E   E E E E E E E E   E E E E E E E E   E E E E E E Q
|-----------------|-----------------|-----------------|----------------|
|-----------------|-----------------|-----------------|----------------|
|-3-3-3-3-3-3-3-3-|-3-3-3-3-3-3-3-3-|-1-1-1-1-1-1-1-1-|-0-0-0-0-0-0-3--|
|-----------------|-----------------|-----------------|----------------|
|
| E E Q   H         Q   Q   E Q   E   Q   Q   E Q   E   H       H
|-0-0-0-----------|-0---0-----0---0s|=1---1---1-1---1s|=0--------------|
|-----------------|---------3-------|-----------------|----------------|
|-----------------|-----------------|-----------------|----------------|
|-----------------|-----------------|-----------------|----------------|
|-----------------|-----------------|-----------------|----------------|
|-----------------|-----------------|-----------------|----------------|


  E E E E E E E E    E  E E E E E E E
|-----------------|-------------------|
|-----------------|---------7-5-------|
|-5-5-5-5-5-5-5-5-|--5----5-----8-7-5-|
|-----------------|-----5-------------|
|
| Q   Q   E Q   E   +Q    Q   E Q   E
|-5---5---3-1---1-|-(1)---1---0-------|
|-----------------|-------------3---3s|
|-----------------|-------------------|
|-----------------|-------------------|
|-----------------|-------------------|
|-----------------|-------------------|


  E E E E E.  E.   E    E  E E E E.   E. E
|-------------3------|-----------3---------|
|--------------------|---------------------|
|-1-1-1-1-1--------1-|--1--1-1-1------1--2-|
|--------------------|---------------------|
|
| Q   Q   E E    E E   +H        E  Q    E
|-----1---0s1----0---|---------------------|
|-6----------------3-|-(3)----------3----3-|
|--------------------|---------------------|
|--------------------|---------------------|
|--------------------|---------------------|
|--------------------|---------------------|


  E E E E E E E E   E E E E E E E E   E E E E E E E E    E  E E E Q  Q
|-----------------|-----------------|-----------------|-----------------||
|-----------------|-------5-3-2-----|-----------------|-----------------||
|-3-3-3-3-3-3-3-3-|-3-3-3-------3-4-|-5-5-5-5-5-5-5-5-|--5--------5--3--||
|-----------------|-----------------|-----------------|-----3-4-5-------||
|
| Q   Q   H         Q   Q   E Q   E   Q   Q   E E E E   +H        H
|-0---0-----------|-0---0-----0---0s|=1---1---0-1-0---|-----------------||
|-----------------|---------3-------|---------------3-|-(3)-------------||
|-----------------|-----------------|-----------------|-----------------||
|-----------------|-----------------|-----------------|-----------------||
|-----------------|-----------------|-----------------|-----------------||
|-----------------|-----------------|-----------------|-----------------||


 B-2
  Q.   E E.   E. E   Q  E E E.    E. E   H    E.   E. E   E. E. Q   E E E
|--------3---------|------5s7-----5--3-|------0----0--2-|------------------|
|------3-----------|----2--------------|----------------|-0-----0----------|
|-1-----------1--2-|-3-----------------|-0--------------|----0------3-1-0--|
|------------------|-------------------|----------------|------------------|
|
| H      E  Q    E   Q  Q   E  Q.        H    E  Q    E   H       H
|-1------1--1----1s|=3--3---1--0-------|-0----0--0----0s|=1----------------|
|-3------3--3----3s|=5--5---3--1-------|-2-------2----2s|=3----------------|
|------------------|-------------------|------3---------|------------------|
|------------------|-------------------|----------------|------------------|
|------------------|-------------------|----------------|------------------|
|------------------|-------------------|----------------|------------------|


  E E E E E E E E    E  E E E E E E E   E E E E E E E E   E E E  E E E E E
|-----------------|-------------------|-----------------|------------------|
|-----------------|-----------5-------|-----------------|---7-7----7-7---7-|
|-----------------|-----3-4-5---5-----|-----------------|------------------|
|-3-3-3-3-3-3-3-3-|--3------------3-4-|-5-5-5-5-5-5-5-5-|-5------5-----5---|
|
| Q   Q   E Q   E   +Q    Q   E Q   E   Q   Q   E Q   E   Q   H.
|-----------------|-------------------|-----0---0-1---1s|=0----------------|
|-3---3---3-3---3-|-(3)---3---2-3---3s|=5---------------|------------------|
|-----------------|-------------------|-----------------|------------------|
|-----------------|-------------------|-----------------|------------------|
|-----------------|-------------------|-----------------|------------------|
|-----------------|-------------------|-----------------|------------------|


  Q.   E E.   E. E    Q   E  E  E.    E.  E
|------------------|--------12-10-----9-----|
|--------8----7--8-|-10------------------10-|
|------8-----------|-----10-----------------|
|-6----------------|------------------------|
|
| H      E  Q    E    Q   Q     E  Q.
|-1------0--1----1s|==3---3-----1--0--------|
|-3------1--3----3s|==5---5-----3--1--------|
|------------------|------------------------|
|------------------|------------------------|
|------------------|------------------------|
|------------------|------------------------|


  H    E.   E. E   E. E. Q   E E E
|------0----1--2-|------------------|
|----------------|-0-----3---2-0----|
|-0--------------|----0----------3--|
|----------------|------------------|
|
| H    E  Q    E   H       H
|-0-------0----0s|=1----------------|
|-2----3--2----2s|=3----------------|
|------3---------|------------------|
|----------------|------------------|
|----------------|------------------|
|----------------|------------------|


  E E E E E E E E    E  E E E E E E E   E E E E E E E E   E E E E E E E E
|-----------------|-------------------|-----------------|---------2-3-4-5-||
|-----------------|-------------------|-----------------|---2-3-5---------||
|-1-1-1-1-1-1-1-1-|--1--1-1-1-1-1-1-1-|-3-3-3-3-3-------|-3---------------||
|-----------------|-------------------|-----------0-1-3-|-----------------||
|
| Q   Q   E Q   E   +Q    Q   Q   Q     Q   Q   E Q   E   H       H
|-1---1---1-1---1-|-(1)---1---0---1---|-3---3---3-1---1s|=3---------------||
|-3---3---3-3---3-|-(3)---3---2---3---|-5---5---5-3---3s|=5---------------||
|-3---3---3-3---3-|-(3)---3---2---3---|-5---5---5-------|-----------------||
|-----------------|-------------------|-----------------|-----------------||
|-----------------|-------------------|-----------------|-----------------||
|-----------------|-------------------|-----------------|-----------------||


 D
  E E E E E E E E    E E  E E E E E E
|-----------------|-------------------|
|-----------------|-------------------|
|-5-5-5-5-5-5-5-5-|--5-5--5-5-5-5-5-5-|
|-----------------|-------------------|
|
| H       Q   Q      Q    Q   E Q   E
|-------------5---|-10---10---8-5---5-|
|-x---------------|-------------------|
|-x---------------|-------------------|
|-x---------------|-------------------|
|-----------------|-------------------|
|-----------------|-------------------|


   E  E E E E E E E    E E  E E E  E E  E
|-------------------|---------------------|
|-------------------|---------------------|
|--1--1-1-1-1-1-1-1-|--1-1--1-1-1--1-1--1-|
|-------------------|---------------------|
|
|  H        Q   Q      Q    Q   E  Q    E
|-(5)-----------5---|-10---10---8-10---10-|
|--x----------------|---------------------|
|--x----------------|---------------------|
|--x----------------|---------------------|
|-------------------|---------------------|
|-------------------|---------------------|


    E  E E E E  E E E   E E  E E E E E E
|---------------------|------------------|
|---------------------|--------5-3-2-----|
|---3--3-3-3-3--3-3-3-|-3-3--3-------3-4-|
|---------------------|------------------|
|
|   H        Q.     E   E Q.     E E E E
|-(10)--------------8-|-8-8--------5-5-5-|
|---x-----------------|------------------|
|---x-----------------|------------------|
|---x-----------------|------------------|
|---------------------|------------------|
|---------------------|------------------|


   E  E E E E E E E    E  E S E. E E E E
|-------------------|------------5-7-5---|
|-------------------|------------------7-|
|--5--5-5-5-5-5-5-5-|--5-----------------|
|-------------------|-----5---5----------|
|
| +Q    H       Q     +H         H
|-(5)---3-------5---|-(5)----------------|
|-------------------|--------------------|
|-------------------|--------------------|
|-------------------|--------------------|
|-------------------|--------------------|
|-------------------|--------------------|


  E E E E E E E E    E E  E E E E E E
|-----------------|-------------------|
|-----------------|-------------------|
|-5-5-5-5-5-5-5-5-|--5-5--5-5-5-5-5-5-|
|-----------------|-------------------|
|
| H       Q   Q      Q    Q   E Q   E
|-------------5---|-10---10---8-5---5-|
|-x---------------|-------------------|
|-x---------------|-------------------|
|-x---------------|-------------------|
|-----------------|-------------------|
|-----------------|-------------------|


   E  E E E E E E E    E E  E E E  E E  E
|-------------------|---------------------|
|-------------------|---------------------|
|--1--1-1-1-1-1-1-1-|--1-1--1-1-1--1-1--1-|
|-------------------|---------------------|
|
|  H        Q   Q      Q    Q   E  Q    E
|-(5)-----------5---|-10---10---8-10---10-|
|--x----------------|---------------------|
|--x----------------|---------------------|
|--x----------------|---------------------|
|-------------------|---------------------|
|-------------------|---------------------|


    E  E E E E E  E E    E E  E E  E E E  E     H     H      E Q.   H
|---------------------|---------------------|--------------|--------------||
|---------------------|---------5--3-2------|--------------|--------------||
|---3--3-3-3-3-3--3-3-|--3-3--3--------3--4-|---5-----3----|---8----7\----||
|---------------------|---------------------|--------------|--------------||
|
|   H        Q    Q      Q    Q    E Q    E    +W            W
|-(10)-----------12---|-12---12---10-8---10-|-(10)---------|--------------||
|---x-----------------|---------------------|--------------|--------------||
|---x-----------------|---------------------|--------------|--------------||
|---x-----------------|---------------------|--------------|--------------||
|---------------------|---------------------|--------------|--------------||
|---------------------|---------------------|--------------|--------------||


 E
  E E E E E E E E   E E E E Q  Q    E E E E E E E E   E E E E E Q  E
|-----------------|---------------|-----------------|----------------|
|-----------------|---------------|-----------------|----------------|
|-----------------|------------0--|-1-1-1-1-1-1-0-1-|-----------3--4-|
|-3-3-3-3-3-3-3-3-|-3-3-3-3-3-----|-----------------|-1-1-1-1-1------|


  H    H      H    E Q  E   H    H      E  E E  E E  Q.
|-----------|-------------|-----------|---19---19---19\---|
|-----------|-------------|-----------|-0----0----0-------|
|-5----5----|-5----5-3--4-|-5----5----|-------------------|
|-----------|-------------|-----------|-------------------|


  E E E E E E E E   E E E E Q  Q    E E E E E E E E   E E E E E Q  E
|-----------------|---------------|-----------------|----------------|
|-----------------|---------------|-----------------|----------------|
|-----------------|------------0--|-1-1-1-1-1-1-0-1-|-----------3--4-|
|-3-3-3-3-3-3-3-3-|-3-3-3-3-3-----|-----------------|-1-1-1-1-1------|


  W          +H     +E  Q  E   W          +E  E E E Q  Q
|----------|-----------------|----------|-----------------|
|----------|-----------------|----------|-----------------|
|-5--------|-(5)----(5)-3--4-|-5--------|-(5)-------5--3--|
|----------|-----------------|----------|-----3-4-5-------|


  Q.   E E. E. E   Q  E E E. E. E   H    E. E. E   E. E. Q  E E E
|--------3-------|------5s7--5--3-|------0--0--2-|----------------|
|------3---------|----2-----------|--------------|----------------|
|-1---------1--2-|-3--------------|-0------------|-5-----5--3-2-0-|
|----------------|----------------|--------------|----5-----------|


  E E E E E E E E   E E E E E E E E   E E E E E E   Q     E E E E E E E E
|-----------------|-----------------|-------------------|-----------------|
|-----------------|---5-3-4-5-------|-------------------|-----------5-6-7-|
|-----------------|-----------5-----|-------------------|-----5-6-7-------|
|-3-3-3-3-3-3-3-3-|-3-----------3-4-|-5-5-5-5-5-5-/15\--|-5-5-------------|


  Q.   E E. E. E    E.  E.  E E.  E.  E   H    E. E. E   E. E. Q  E E E
|----------------|------------9--10--12-|------0--1--2-|----------------|
|--------8--7--8-|-10------10-----------|--------------|-------3--2-0---|
|------8---------|-----10---------------|-0------------|-5------------3-|
|-6--------------|----------------------|--------------|----5-----------|


  E E E E E E E E   E E E E E E E E   E E E E E E E E   E E E E E E E E
|-----------------|-----------------|-----------------|-----------------||
|-----------------|-----------------|-----------------|---2-3-5-3-2-----||
|-1-1-1-1-1-1-1-1-|-1-1-1-1-1-1-1-1-|-3-3-3-3-3-3-3-3-|-3-----------3-4-||
|-----------------|-----------------|-----------------|-----------------||


 F
                   |-3-|  |-3--|                       |--3--| |--3--|
  H..        E   a Q Q Q  Q Q  Q     Q.   E E Q   E    Q  Q  Q Q  Q  Q
|--------------|-7s9-7-9-10-9------|-------------10-|-14-12-10-9-10------|
|------------7-|--------------10---|-8--------8-----|---------------12---|
|-5------------|-------------------|------8-8-------|--------------------|
|--------------|-------------------|----------------|--------------------|
|
| Gtr II
| H      H         W                 W                 W
|--------------|-------------------|----------------|--------------------|
|-x------------|-------------------|----------------|--------------------|
|-x------------|-------------------|----------------|--------------------|
|-x------------|-------------------|----------------|--------------------|
|--------------|-------------------|----------------|--------------------|
|--------------|-------------------|----------------|--------------------|


                     |-3--|
   Q.    Q   Q  E    Q Q  Q  E  Q   E    Q.   E E Q  E   E Q  E E Q  E
|---------------9-|-10-9-10-12--------|-----------7--7-|-5--------------|
|-10--------10----|------------10--11-|-12----5s7------|---8--7-5-------|
|-------10--------|-------------------|----------------|----------8--7--|
|-----------------|-------------------|----------------|----------------|


  q  q  q   q    q  q   q    q    q  q  q   q    q   q  q  q
|--------------|----------------|--------------|--------------|
|--------------|----------------|--------------|--------------|
|-5--5--5---5--|-5--5---5----5--|-1--1--1---1--|-1---1--1--1--|
|--------------|----------------|--------------|--------------|
|
| Gtr II
| H     E E Q    Q  E Q   Q.      H     E E Q    Q   H     Q
|---------5-5--|-5--5-5---5-----|---------8-8--|-8--10--------|
|-x------------|----------------|-x------------|--------------|
|-x------------|----------------|-x------------|--------------|
|-x------------|----------------|-x------------|--------------|
|--------------|----------------|--------------|--------------|
|--------------|----------------|--------------|--------------|


  q  q  q    q    q   q    q  q
|---------------|----------------|
|---------------|----------------|
|-3--3--3----3--|-3---3----3--3--|
|---------------|----------------|
|
| H     E Q.      E E E Q.    Q
|-------5-5-----|-8-5-3-8--------|
|-x-------------|----------------|
|-x-------------|----------------|
|-x-------------|----------------|
|---------------|----------------|
|---------------|----------------|


  q   q    q    q      E  E E  E    E   E E E
|-------------------|-----7-5--6----7---------||
|-------------------|-------------------5-6-7-||
|-5---5----5----5---|--5----------------------||
|-------------------|-------------------------||
|
| Q   Q    Q   +Q      Q.      E   +H
|----10---10--------|-10------10--(10)\-------||
|-x--(x)--(x)--(x)--|-(x)-----(x)--(x)--------||
|-x--(x)--(x)--(x)--|-(x)-----(x)--(x)--------||
|-x--(x)--(x)--(x)--|-(x)-----(x)--(x)--------||
|-------------------|-------------------------||
|-------------------|-------------------------||


 D-2
  E E E E E E E E    E E  E E E E E E
|-----------------|-------------------|
|-----------------|-------------------|
|-5-5-5-5-5-5-5-5-|--5-5--5-5-5-5-5-5-|
|-----------------|-------------------|
|
| H       Q   Q      Q    Q   E Q   E
|-------------5---|-10---10---8-5---5-|
|-x---------------|-------------------|
|-x---------------|-------------------|
|-x---------------|-------------------|
|-----------------|-------------------|
|-----------------|-------------------|


   E  E E E E E E E    E E  E E E  E E  E
|-------------------|---------------------|
|-------------------|---------------------|
|--1--1-1-1-1-1-1-1-|--1-1--1-1-1--1-1--1-|
|-------------------|---------------------|
|
|  H        Q   Q      Q    Q   E  Q    E
|-(5)-----------5---|-10---10---8-10---10-|
|--x----------------|---------------------|
|--x----------------|---------------------|
|--x----------------|---------------------|
|-------------------|---------------------|
|-------------------|---------------------|


    E  E E E E E  E E    E E  E E  E E E E
|---------------------|--------------------|
|---------------------|---------5--3-2-----|
|---3--3-3-3-3-3--3-3-|--3-3--3--------3-4-|
|---------------------|--------------------|
|
|   H        Q    Q      Q    Q    Q   Q
|-(10)-----------12---|-12---12---10---8---|
|---x-----------------|--------------------|
|---x-----------------|--------------------|
|---x-----------------|--------------------|
|---------------------|--------------------|
|---------------------|--------------------|


   E E  E E E E  E E     E  E S E. E E E E
|--------------------|-------------5-7-5---|
|--------------------|-------------------7-|
|--5-5--5-5-5-5--5-5-|---5-----------------|
|--------------------|------5---5----------|
|
|  Q    H        Q      +H         H
|-10---13-------10---|-(10)----------------|
|--------------------|---------------------|
|--------------------|---------------------|
|--------------------|---------------------|
|--------------------|---------------------|
|--------------------|---------------------|


  E E E E E E E E    E E  E E E E E E
|-----------------|-------------------|
|-----------------|-------------------|
|-5-5-5-5-5-5-5-5-|--5-5--5-5-5-5-5-5-|
|-----------------|-------------------|
|
| H       Q   Q      Q    Q   E Q   E
|-------------5---|-10---10---8-5---5-|
|-x---------------|-------------------|
|-x---------------|-------------------|
|-x---------------|-------------------|
|-----------------|-------------------|
|-----------------|-------------------|


   E  E E E E E E E    E E  E E E  E E  E
|-------------------|---------------------|
|-------------------|---------------------|
|--1--1-1-1-1-1-1-1-|--1-1--1-1-1--1-1--1-|
|-------------------|---------------------|
|
|  H        Q   Q      Q    Q   E  Q    E
|-(5)-----------5---|-10---10---8-10---10-|
|--x----------------|---------------------|
|--x----------------|---------------------|
|--x----------------|---------------------|
|-------------------|---------------------|
|-------------------|---------------------|


    E  E E E E E  E E    E E  E E  E E E  E
|---------------------|---------------------|
|---------------------|---------5--3-2------|
|---3--3-3-3-3-3--3-3-|--3-3--3--------3--4-|
|---------------------|---------------------|
|
|   H        Q    Q      Q    Q    E Q    E
|-(10)-----------12---|-12---12---10-8---10-|
|---x-----------------|---------------------|
|---x-----------------|---------------------|
|---x-----------------|---------------------|
|---------------------|---------------------|
|---------------------|---------------------|


    S  S S S E S S S S E S S S S   E S S S S E E E E E
|------------7---------7---------|-7---------7-7-5------||
|--------------------------------|-----------------8-7--||
|---5--5-5-5---5-5-5-5---5-5-5-5-|---5-5-5-5------------||
|--------------------------------|----------------------||
|
|  +H              H               W
|-(10)---------------------------|----------------------||
|--------------------------------|----------------------||
|--------------------------------|----------------------||
|--------------------------------|----------------------||
|--------------------------------|----------------------||
|--------------------------------|----------------------||


 B-3
  Q.   E E.   E. E   Q  E E E.    E. E   H    E.   E. E   E. E. Q   E E E
|--------3---------|------5s7-----5--3-|------0----0--2-|------------------|
|------3-----------|----2--------------|----------------|-0-----0----------|
|-1-----------1--2-|-3-----------------|-0--------------|----0------3-1-0--|
|------------------|-------------------|----------------|------------------|
|
| H      E  Q    E   Q  Q   E  Q.        H    E  Q    E   H       H
|-1------1--1----1s|=3--3---1--0-------|-0----0--0----0s|=1----------------|
|------------------|-------------------|----------------|------------------|
|------------------|-------------------|----------------|------------------|
|------------------|-------------------|----------------|------------------|
|------------------|-------------------|----------------|------------------|
|------------------|-------------------|----------------|------------------|


  E E E E E E E E    E  E E E E E E E   E E E E E E E E    E E S  S E H
|-----------------|-------------------|-----------------|-------------------|
|-----------------|-----------5-------|-----------------|----7----7---7\----|
|-----------------|-----3-4-5---5-----|-----------------|-/7----------------|
|-3-3-3-3-3-3-3-3-|--3------------3-4-|-5-5-5-5-5-5-5-5-|-------------------|
|
| Q   Q   E Q   E   +Q    Q   E Q   E   Q   Q   E Q   E    Q   H.
|-----------------|-------------------|-----0---0-1---1s|==0----------------|
|-3---3---3-3---3-|-(3)---3---2-3---3s|=5---------------|-------------------|
|-----------------|-------------------|-----------------|-------------------|
|-----------------|-------------------|-----------------|-------------------|
|-----------------|-------------------|-----------------|-------------------|
|-----------------|-------------------|-----------------|-------------------|


  Q.   E E.   E. E    Q   E  E  E.   E.  E   H    E.   E. E   E. E. Q   E E E
|------------------|--------12-10----9-----|------0----1--2-|------------------|
|--------8----7--8-|-10-----------------10-|----------------|-0-----3---2-0----|
|------8-----------|-----10----------------|-0--------------|----0----------3--|
|-6----------------|-----------------------|----------------|------------------|
|
| H      E  Q    E    Q   Q     E  Q     E   H    E  Q    E   H       H
|-1------0--1----1s|==3---3-----1--0-------|------0--0----0s|=1----------------|
|------------------|---------------------3s|=5--------------|------------------|
|------------------|-----------------------|----------------|------------------|
|------------------|-----------------------|----------------|------------------|
|------------------|-----------------------|----------------|------------------|
|------------------|-----------------------|----------------|------------------|


  E E E E E E E E    E  E E E E E E E   E E E E E E E E   E E E E E E E E
|-----------------|-------------------|-----------------|-----------------||
|-----------------|-------------------|-----------------|---2-3-5-3-2-----||
|-1-1-1-1-1-1-1-1-|--1--1-1-1-1-1-1-1-|-3-3-3-3-3-------|-3-----------3-4-||
|-----------------|-------------------|-----------0-1-3-|-----------------||
|
| Q   Q   E Q   E   +Q    Q   Q   Q     Q   Q   E Q   E   H       H
|-----------------|-------------------|-0---0---0-1---1s|=3---------------||
|-3---3---3-3---3-|-(3)---3---2---3---|-----------------|-----------------||
|-----------------|-------------------|-----------------|-----------------||
|-----------------|-------------------|-----------------|-----------------||
|-----------------|-------------------|-----------------|-----------------||
|-----------------|-------------------|-----------------|-----------------||


 G
  E E E E E E E E   E E E E E E E E    E  E E E E E E E   E E E E E E E E
|-----------------|-----------------|-------------------|-----------------|
|-----------------|-----------------|-------------------|-----------------|
|-5-5-5-5-5-5-5-5-|-5-5-5-5-5-5-5-5-|--1--1-1-1-1-1-1-1-|-1-1-1-1-1-1-1-1-|
|-----------------|-----------------|-------------------|-----------------|
|
| H       Q   Q     Q   Q   E Q   E    H        Q   Q     Q   Q   E Q   E
|-------------5---|-5---5---3-1---1-|-(1)-----------5---|-5---5---3-1---1-|
|-x---------------|-----------------|--x----------------|-----------------|
|-x---------------|-----------------|--x----------------|-----------------|
|-x---------------|-----------------|--x----------------|-----------------|
|-----------------|-----------------|-------------------|-----------------|
|-----------------|-----------------|-------------------|-----------------|


   E  E E E E E E E   E E E E E E E E   E  E E E  E E E E    E  E E E E E E E
|-------------------|-----------------|-------------------|-----------5-------|
|-------------------|---2-3-5-3-2-----|-------------------|-----5-6-7---7-5---|
|--3--3-3-3-3-3-3-3-|-3-----------3-4-|-5--5-5-5--5-5-5-5-|--5--------------8-|
|-------------------|-----------------|-------------------|-------------------|
|
|  H        Q   Q     Q   Q   Q   Q     Q.     Q.     Q     +H        H
|-(1)-----------3---|-3---3---5---6---|-5------3------5---|-(5)---------------|
|--x----------------|-----------------|-------------------|-------------------|
|--x----------------|-----------------|-------------------|-------------------|
|--x----------------|-----------------|-------------------|-------------------|
|-------------------|-----------------|-------------------|-------------------|
|-------------------|-----------------|-------------------|-------------------|


  E E E E E E E E    E E  E E E E E E
|-----------------|-------------------|
|-----------------|-------------------|
|-5-5-5-5-5-5-5-5-|--5-5--5-5-5-----0-|
|-----------------|-------------1-3---|
|
| H       Q   Q      Q    Q   E Q   E
|-------------5---|-10---10---8-5---5-|
|-x---------------|-------------------|
|-x---------------|-------------------|
|-x---------------|-------------------|
|-----------------|-------------------|
|-----------------|-------------------|


   E  E E E E E E E    E E  E E E  E E  E
|-------------------|---------------------|
|-------------------|---------------------|
|--1--1-1-1-1-1-1-1-|--1-1--1-1-1--1-1--1-|
|-------------------|---------------------|
|
|  H        Q   Q      Q    Q   E  Q    E
|-(5)-----------5---|-10---10---8-10---10-|
|--x----------------|---------------------|
|--x----------------|---------------------|
|--x----------------|---------------------|
|-------------------|---------------------|
|-------------------|---------------------|


    E  E E E E E  E E    E  E  E E  E E E  E
|---------------------|----------------------||
|---------------------|----------------------||
|---3--3-3-3-3-3--3-3-|--3--3--3-3--3-3-3--3-||
|---------------------|----------------------||
|
|   H        Q    Q      E  Q.      E Q    E
|-(10)-----------12---|-12-12------10-8---10-||
|---x-----------------|----------------------||
|---x-----------------|----------------------||
|---x-----------------|----------------------||
|---------------------|----------------------||
|---------------------|----------------------||


 D-3
  E E E E E E E E    E E  E E E E E E
|-----------------|-------------------|
|-----------------|-------------------|
|-5-5-5-5-5-5-5-5-|--5-5--5-5-5-5-5-5-|
|-----------------|-------------------|
|
| H       Q   Q      Q    Q   E Q   E
|-------------5---|-10---10---8-5---5-|
|-x---------------|-------------------|
|-x---------------|-------------------|
|-x---------------|-------------------|
|-----------------|-------------------|
|-----------------|-------------------|


   E  E E E E E E E    E E  E E E  E E  E
|-------------------|---------------------|
|-------------------|---------------------|
|--1--1-1-1-1-1-1-1-|--1-1--1-1-1--1-1--1-|
|-------------------|---------------------|
|
|  H        Q   Q      Q    Q   E  Q    E
|-(5)-----------5---|-10---10---8-10---10-|
|--x----------------|---------------------|
|--x----------------|---------------------|
|--x----------------|---------------------|
|-------------------|---------------------|
|-------------------|---------------------|


    E  E E E E E  E E    E E  E E  E E E E
|---------------------|--------------------|
|---------------------|---------5--3-2-----|
|---3--3-3-3-3-3--3-3-|--3-3--3--------3-4-|
|---------------------|--------------------|
|
|   H        Q    Q      Q    Q    Q   Q
|-(10)-----------12---|-12---12---10---8---|
|---x-----------------|--------------------|
|---x-----------------|--------------------|
|---x-----------------|--------------------|
|---------------------|--------------------|
|---------------------|--------------------|


   E E  E E E E  E E     E  E S E. E E E E
|--------------------|-------------5-7-5---|
|--------------------|-------------------7-|
|--5-5--5-5-5-5--5-5-|---5-----------------|
|--------------------|------5---5----------|
|
|  Q    H        Q      +H         H
|-10---13-------10---|-(10)----------------|
|--------------------|---------------------|
|--------------------|---------------------|
|--------------------|---------------------|
|--------------------|---------------------|
|--------------------|---------------------|


  E E E E E E E E    E E  E E E E E E
|-----------------|-------------------|
|-----------------|-------------------|
|-5-5-5-5-5-5-5-5-|--5-5--5-5-5-5-5-5-|
|-----------------|-------------------|
|
| H       Q   Q      Q    Q   E Q   E
|-------------5---|-10---10---8-5---5-|
|-x---------------|-------------------|
|-x---------------|-------------------|
|-x---------------|-------------------|
|-----------------|-------------------|
|-----------------|-------------------|


   E  E E E E E E E    E E  E E E  E E  E
|-------------------|---------------------|
|-------------------|---------------------|
|--1--1-1-1-1-1-1-1-|--1-1--1-1-1--1-1--1-|
|-------------------|---------------------|
|
|  H        Q   Q      Q    Q   E  Q    E
|-(5)-----------5---|-10---10---8-10---10-|
|--x----------------|---------------------|
|--x----------------|---------------------|
|--x----------------|---------------------|
|-------------------|---------------------|
|-------------------|---------------------|


    E  E E E E E  E E    E  E E E  E E E E
|---------------------|--------------------|
|---------------------|--------------------|
|---3--3-3-3-3-3--3-3-|--3--3-3-3--3-3-3-3-|
|---------------------|--------------------|
|
|  +H        Q    Q      E  E Q    E Q   E
|-(10)-----------12---|-12-12-----10-8---8s|
|---------------------|--------------------|
|---------------------|--------------------|
|---------------------|--------------------|
|---------------------|--------------------|
|---------------------|--------------------|


   E E E E E E Q     E E E E E E E E
|--------------2/--|-7-7-7---7-5-----||
|------------------|-------7-----8-7-||
|--5-5-5-5-5-5-----|-----------------||
|------------------|-----------------||
|
|  W                 W
|-10---------------|-----------------||
|------------------|-----------------||
|------------------|-----------------||
|------------------|-----------------||
|------------------|-----------------||
|------------------|-----------------||


 H
  E E E E E E E E   E E E E E E E E   E E E E E E E E   E E E E E. E. E
|-----------------|-----------------|-----------------|------------------|
|-----------------|-----------------|-----------------|---------3--2-----|
|-1-1-1-1-1-1-1-1-|-3-3-3-3-3-------|-----------------|---------------3--|
|-----------------|-----------0-1-3-|-1-1-1-1-1-1-1-1-|-1-1-1-1----------|


  E E E E E E E E   E E E E E E E E   E E E E E E E E   E E E E E E E E
|-----------------|-----------------|-----------------|-----------------|
|-----------------|-----------------|-----------------|-----------------|
|-1-1-1-1-1-1-1-1-|-3-3-3-3-3-3-3-4-|-5-5-5-5-5-5-5-5-|-5---------0-1-3-|
|-----------------|-----------------|-----------------|---0-1-2-3-------|


  E E E E E E E E   E E E E E E E E   H    H      H.      Q
|-----------------|-----------------|-----------|------------|
|-----------------|-----------------|-----------|---------7--|
|-1-1-1-1-1-0-1-2-|-3-3-3-3-3-------|------3----|-5----------|
|-----------------|-----------0-1-3-|-1---------|------------|


   Q  Q  Q   Q    H    +E  Q.     Q   Q  Q  Q    H    +E  Q.
|-10--9--7------|---------------|--------------|---------------|
|-----------10--|---------------|-8/-----------|---------------|
|---------------|----------8----|-----0--1--2--|-3----(3)------|
|---------------|-6----(6)------|--------------|----------3----|


  Q  Q  Q  Q    W          W          +W           +H.      Q
|-------------|----------|----------|------------|--------------|
|-------------|----------|-7--------|-(7)--------|-(7)------7S==|
|-3--2--3--4--|-5--------|----------|------------|--------------|
|-------------|----------|----------|------------|--------------|


   S  S  S  S  S  S  S  S  S  S  S  S  S  S  S  S    S  S  S  S  Q   S  S  S  S  S  S  S  S
|-------------------------------------------------|-------------12S=19-19-19-19-19-19-19-19-|
|-12-12-12-12-12-12-12-12-12-12-12-12-12-12-12-12-|-12-12-12-12-----------------------------|
|-------------------------------------------------|-----------------------------------------|
|-------------------------------------------------|-----------------------------------------|


   S  S  S  S  S  S  S  S  S  S  S  S  S  S  S  S
|-19p17----19p17----19p17----19p17----19p17----19p===|
|-------17-------17-------17-------17-------17-------|
|----------------------------------------------------|
|----------------------------------------------------|


   S  S  S  S E  E E  E E  E   E  H..         S S S S S S S S S S S S S S S S
|-17----19p17---19---17------|--------------|---------------------------------|
|----17-------------------17-|---16---------|---------------------------------|
|----------------------------|--------------|-5-5-5-5-5-5-5-5-5-5-5-5-5-5-5-5-|
|----------------------------|--------------|---------------------------------|


  W          +W           +W           Q   H.
|----------|------------|------------|-----------*|
|----------|------------|------------|-----------*|
|-5--------|-(5)--------|-(5)--------|-5\--------*|
|----------|------------|------------|-----------*|



Duration Legend
---------------
W - whole; H - half; Q - quarter; E - 8th; S - 16th; T - 32nd; X - 64th; a - acciaccatura
+ - note tied to previous; . - note dotted; .. - note double dotted
Uncapitalized letters represent notes that are staccato (1/2 duration)
Irregular groupings are notated above the duration line
Duration letters will always appear directly above the note/fret number it represents the
duration for.  Duration letters with no fret number below them represent rests.  Multi-
bar rests are notated in the form Wxn, where n is the number of bars to rest for.  Low
melody durations appear below the staff

Tablature Legend
----------------
 h   - hammer-on
 p   - pull-off
 b   - bend
 pb  - pre-bend
 r   - bend release (if no number after the r, then release immediately)
 /\  - slide into or out of (from/to "nowhere")
 s   - legato slide
 S   - shift slide
 - natural harmonic
[n]  - artificial harmonic
n(n) - tapped harmonic
 ~   - vibrato
 tr  - trill
 T   - tap
 TP  - trem. picking
 PM  - palm muting
\n/  - tremolo bar dip; n = amount to dip
 \n  - tremolo bar down
 n/  - tremolo bar up
/n\  - tremolo bar inverted dip
 =   - hold bend; also acts as connecting device for hammers/pulls
 <> - volume swell (louder/softer)
 x   - on rhythm slash represents muted slash
 o   - on rhythm slash represents single note slash

Misc Legend
-----------
 |  - bar
||  - double bar
||o - repeat start
o|| - repeat end
*|  - double bar (ending)
 :  - bar (freetime)
 $  - Segno
 &  - Coda
Tempo markers -  = BPM(8/16=s8/s16), where s8 = swing 8ths, s16 = swing 16ths


            
            
Suggest correction
Creating personal tab
Creating personal tab
You can edit any tab online and save it as your Personal.

You can edit, replace or remove any tab part or add personal notes – all changes will be seen only by you.

Personal tabs can be accessed anytime from any device, even offline.
Learn more »
Give kudos to tab author, rate the tab!
1 2 3 4 5
comments
print report bad tab
guest
You may want to rate the tab now too:
select rating
Wanna post a correction for this tab? Suggest correction