Oops, an error
Loading. Please wait.

Come Let Go tab

43,787 views 54 this week
no commentswrite comment
1 2 3 4 5
x 14
add to favorites
×
Save as Personal and add changes to this tab that will be seen only by you. Learn more ›
×
You can save this tab as Personal to edit and correct it or add notes. All changes will be seen only by you. Learn more »
launch autoscroll
font size
0
reset
how to read this tab
guitar tuner
edit
Autoscroll
slow
fast
+/-
esc
set tempo
stop
Author
Last tab i saw of this was ok but kinda wrong and didn't have the part at
the beginning. 
Anyway here goes, main part sounds best in barre chords in my 
oppinion but you can play it with open chords too.


[Intro]

 This part plays on its own
e|-----------------|-----------------|-----------------|-----------------|
B|-----------------|-----------------|-----------------|-----------------|
G|-12---7---9-9--5-|5-4/12-12-12-7-7-|9-9-5-5-4--------|-----------------|
D|-----------9-9--5|-----------------|-----------------|-----------------|
A|-----------------|-----------------|-----------------|-----------------|
E|-----------------|-----------------|-----------------|-----------------|

 This part then plays along with the bass and drums at the beginning and it 
 also plays at other parts throughout the song so just stick it in when you hear it!
e|------------------|-----------------|-----------------|-----------------|
B|-/12-12-7-7--9-9-5|-5-4-------------|-----------------|-----------------|
G|---------7-7--9-9-|5----------------|-----------------|-----------------|
D|------------------|-----------------|-----------------|-----------------|
A|------------------|-----------------|-----------------|-----------------|
E|------------------|-----------------|-----------------|-----------------|


Then mostly up strumming of these chords with the singing.

    G  D  Em C 
e|--3--5--7--3-----|
B|--3--7--8--5-----|
G|--4--7--9--5-----|
D|--5--7--9--5-----|
A|--5--5--7--3-----|
E|--3--5--7--3-----|

 G                     D
come my brother come slowly
      Em       C
come easy my friend
          G
come my friend
  G                  D
come my sister come easy
       Em
come breezy
    C           G
on me you can depend
  G                        D
come my brother put your hands up
            Em
take your heart out
     C          G
let go come let go
  G                   D
come my sister can i hold you 
         Em            C
can i squeeze you let go
          G
come let go



************************************

| /  Slide up

************************************

            
            
Suggest correction
Creating personal tab
Creating personal tab
You can edit any tab online and save it as your Personal.

You can edit, replace or remove any tab part or add personal notes – all changes will be seen only by you.

Personal tabs can be accessed anytime from any device, even offline.
Learn more »
comments
print report bad tab
guest
You may want to rate the tab now too:
select rating
Wanna post a correction for this tab? Suggest correction