Oops, an error
Loading. Please wait.

I Love The Valley Oh tab

by Xiu Xiu
13,188 views 45 this week
no commentswrite comment
1 2 3 4 5
x 9
add to favorites
×
Save as Personal and add changes to this tab that will be seen only by you. Learn more ›
×
You can save this tab as Personal to edit and correct it or add notes. All changes will be seen only by you. Learn more »
launch autoscroll
font size
0
reset
how to read this tab
guitar tuner
edit
Autoscroll
slow
fast
+/-
esc
set tempo
stop
                                Xiu Xiu- I luv the Valley OH

Bass riff (throughout almost the entire song)

E------------------------------------------------------------------------|
B------------------------------------------------------------------------|
G------------------------------------------------------------------------|
D------------------------------------------------------------------------|
A---7--7-7------------------------5---5-5---3--3-3-3-3-------------------|
E----------------3----3-3-3-3--------------------------------------------|


E------------------------------------------------------------------------|
B------------------------------------------------------------------------|
G------------------------------------------------------------------------|
D------------------------------------------------------------------------|
A---7--7-7------------------------3---3-3---5--5-5-5-5-------------------|
E----------------3----3-3-3-3--------------------------------------------|

Opening Riff (start to 0:07, comes in 0:27-0:49ish (play these 2 chords back and forth))

E---7—--7--7—7-7---7---------------------------------------------------|
B---8---8-8--8—8---8—--------------------------------------------------|
G---9---9-9--7—7---7-----—---------------------------------------------|
D----------------------------------------------------------------------|
A----------------------------------------------------------------------|
E----------------------------------------------------------------------|


Melody (comes in 0:06 plays in backround)

E-----------7---------7--------7---------------7------------------|
B---------8—8---------8--------8---8-8-8-----8--------------------|
G-----------------------------------------------------------------|
D-----------------------------------------------------------------|
A-----------------------------------------------------------------|
E-----------------------------------------------------------------|



Break (comes in 1:14 and finishes the song at 2:05)

E----------------------------------------------------------------------|
B----------------------------------------------------------------------|
G---12-12-11-11--9---11--7-----12-12---11-11-9--11-12------------------|
D----------------------------------------------------------------------|
A---10-10—9—-9---7---9---5-----10-10---9-—9---7—9--10------------------|
E----------------------------------------------------------------------|

Around 2:11 (same as above but one added “lick”)

E---------------------------------------------------------------------|
B---------------------------------------------------------------------|
G---12-12-11-11-9-11/16-16-14-12-12-----------------------------------|
D---------------------------------------------------------------------|
A---10-10—9—-9—-7-9/14—-14-12-10-10-----------------------------------|
E---------------------------------------------------------------------|

            
            
Suggest correction
Creating personal tab
Creating personal tab
You can edit any tab online and save it as your Personal.

You can edit, replace or remove any tab part or add personal notes – all changes will be seen only by you.

Personal tabs can be accessed anytime from any device, even offline.
Learn more »
comments
print report bad tab
guest
You may want to rate the tab now too:
select rating
Wanna post a correction for this tab? Suggest correction