Oops, an error
Loading. Please wait.

Superficial bass

64 views 1 this week
no commentswrite comment
1 2 3 4 5
3 more votes to show rating
add to favorites
×
Save as Personal and add changes to this tab that will be seen only by you. Learn more ›
×
You can save this tab as Personal to edit and correct it or add notes. All changes will be seen only by you. Learn more »
launch autoscroll
font size
0
reset
guitar tuner
edit
Autoscroll
slow
fast
+/-
esc
set tempo
stop
Author
Difficulty
intermediate
                        Xplore Yesterday - SUPERFICIAL


tabbed by: Joey Young
email    : joey@xyofficial.com
website  : www.xyofficial.com
Facebook : XYofficial
iTunes link: http://itunes.apple.com/us/album/flying/id470376333
Live version: https://www.youtube.com/watch?v=Rmll46Nc304
"Rock Band 3" version: https://www.youtube.com/watch?v=32sh7ikNO60


Notation:

  h      : hammer-on
  p      : pull-off
  \      : slide down
  /      : slide up
  s      : slap
  p      : pop



Intro:

G|---------------------------------|---------------------------------|
D|---------------------------------|---------------------------------|
A|---------------------------------|---------------------------------|
E|---------------------------------|---------------------------------|

G|---------------------------------|---------------------------------|
D|---------------------------------|---------------------------------|
A|---------------------------------|---------------------------------|
E|---------------------------------|---------------------------------|

G|---------------------------------|---------------------------------|
D|---------------------------------|---------------------------------|
A|-----------------------------0-2-|-3-3-3-3-3-3-3-3-0-0-0-0-0-0-3-2-|
E|-0-0-0-0-0-0-0-0-0-0-0-0-0-0-----|---------------------------------|

G|---------------------------------|---------------------------------|
D|---------------------------------|---------------------------------|
A|------------------------/7-7-0-2-|-3-3-3-3-3-3-3-3-0-0-0-0-0-0-3-2-|
E|-0-0-0-0-0-0-0-0-0-0-0-0---------|---------------------------------|


Verse 1: "Losing control..."

G|---------------------------------|---------------------------------|
D|---------------------------------|---------------------------------|
A|-----------------------------0-2-|-3-3-3-3-3-3-3-3-0-0-0-0-0-0-3-2-|
E|-0-0-0-0-0-0-0-0-0-0-0-0-0-0-----|---------------------------------|

G|---------------------------------|---------------------------------|
D|---------------------------------|---------------------------------|
A|------------------------/7-7-0-2-|-3-3-3-3-3-3-3-3-0-0-0-0-0-0-3-2-|
E|-0-0-0-0-0-0-0-0-0-0-0-0---------|---------------------------------|

G|---------------------------------|---------------------------------|
D|---------------------------------|---------------------------------|
A|-----------------------------0-2-|-3-3-3-3-3-3-3-3-5-5-5-5-5-5-5-7-|
E|-0-0-0-0-0-0-0-0-0-0-0-0-0-0-----|---------------------------------|

G|---------------------------------|---------------------------------|
D|---------------------------------|-------------------------4h5p4---|
A|-----------------------------0-2-|-3---x-3---x-5-----5-5-5-------5-|
E|-0-0-0-0-0-0-0-0-0-0-0-0-0-0-----|---------------------------------|



Riff:

G|---------------------------------|---------------------------------|
D|--------------------/5-----------|---------------------------------|
A|--------/7-------------5---------|--------/7-----------------------|
E|-0---0-0---6-0-0-0-0-----0-0-9-8-|-7-0-0-0---6-0-0-0-0-3-0-0-3-0-3-|
                                                                     |
                                                                     |
G|---------------------------------|---------------------------------|
D|--------------------/5-----------|-------------------------8-x-11~-|
A|------------/7---------5---------|--------/7-----------7-x---------|
E|---0-0-0-0-0---6-0-0-----0-0-9-8-|-7-0-0-0---6-0-0-0-0-------------|


G|---------------------------------|---------------------------------|
D|--------------------/5-----------|---------------------------------|
A|--------/7-------------5---------|--------/7-----------------------|
E|-0---0-0---6-0-0-0-0-----0-0-9-8-|-7-0-0-0---6-0-0-0-0-3-0-0-3-0-3-|
                                                                     |
                                                                     |
G|---------------------------------|---------------------------------|
D|--------------------/5-----------|-----------------------8-x-11~---|
A|------------/7---------5---------|--------/7---------7-x-----------|
E|---0-0-0-0-0---6-0-0-----0-0-9-8-|-7-0-0-0---6-0-0-0---------------|



Verse 2: "A few weeks..."

G|---------------------------------|---------------------------------|
D|---------------------------------|---------------------------------|
A|------------------------/7-7-0-2-|-2h3-3-3-3-3-------0-0-0-0-0-3-2-|
E|-0-0-0-0-0-0-------0-0-0---------|---------------------------------|

G|---------------------------------|---------------------------------|
D|---------------------------------|---------------------------------|
A|------------------------/7-7-0-2-|-2h3-3-3-3-3-------0-0-0-0-0-3-2-|
E|-0-0-0-0-0-0-------0-0-0---------|---------------------------------|

G|---------------------------------|---------------------------------|
D|---------------------------------|---------------------------------|
A|---------------------------7\----|-3-----------x-3-5---5---x-5\----|
E|-0-----------x-0-0---0---x-------|---------------------------------|

G|---------------------------------|---------------------------------|
D|---------------------------------|---------------------------------|
A|---------------------------7\----|-3-----3---x-5-----5-5-5-5-5-5\--|
E|-0-----------x-0-0---0---x-------|---------------------------------|



Chorus:

G|---------------------------------|---------------------------------|
D|---------------------------------|---------------------------------|
A|-------------7-----7-----7---9\--|-5-----5-----3-----3-----3---2h3-|
E|-0-----0---x-----------x---------|-----------x-----------x---------|

G|---------------------------------|---------------------------------|
D|---------------------------------|---------------------------------|
A|-------------7-----7-----7---9\--|-5-----5-----3-----3-----3-------|
E|-0-----0---x-----------x---------|-----------x-----------x-----3p2-|

G|---------------------------------|---------------------------------|
D|---------------------------------|---------------------------------|
A|-------------7-----7-----7---9\--|-5-----5-----3-----3-----3---2h3-|
E|-0-----0---x-----------x---------|-----------x-----------x---------|

G|---------------------------------|---------------------------------|
D|---------------------------------|---------------------------------|
A|-------------7-----7-----7---9\--|-5-----5-----3-----3-----3-------|
E|-0-----0---x-----------x---------|-----------x-----------x-----3p2-|



Bridge:

G|---------------------------------|---------------------------------|
D|---------------------------------|---------------------------------|
A|---------------------------------|---------------------------------|
E|-0-------------------------------|---------------------------------|

G|---------------------------------|---------------------------------|
D|---------------------------------|---------------------------------|
A|---------------------------------|---------------------------------|
E|---------------------------------|---------------------------------|

G|---------------------------------|---------------------------------|
D|---------------------------------|---------------------------------|
A|---------------------------------|---------------------------------|
E|-0-0---------0-0-----------------|-0-0---------0-0-----------------|
   s s         s s                   s s         s s

G|---------------------------------|---------------------------------|
D|---------------------------------|---------------------------------|
A|---------------------------------|---------------------------------|
E|-0-0---------0-0-----------------|-0-0---------0-0-----------------|
   s s         s s                   s s         s s

G|---------------------------------|---------------------------------|
D|---------2-----------------------|---------2-----------------------|
A|---------------------------------|---------------------------------|
E|-0-0---------0-0-----------------|-0-0---------0-0-----------------|
   s s     p   s s                   s s     p   s s

G|---------------------------------|---------------------------------|
D|---------2-----------------------|---------------------------------|
A|---------------------------------|------------------/7-7-7-7-7-7---|
E|-0-0---------0-0-----------------|-0-0---------0-0---------------0-|
   s s     p   s s                   s s         s s


Chorus (x2):

G|---------------------------------|---------------------------------|
D|---------------------------------|---------------------------------|
A|-------------7-----7-----7---9\--|-5-----5-----3-----3-----3---2h3-|
E|-0-----0---x-----------x---------|-----------x-----------x---------|

G|---------------------------------|---------------------------------|
D|---------------------------------|---------------------------------|
A|-------------7-----7-----7---9\--|-5-----5-----3-----3-----3-------|
E|-0-----0---x-----------x---------|-----------x-----------x-----3p2-|

G|---------------------------------|---------------------------------|
D|---------------------------------|---------------------------------|
A|-------------7-----7-----7---9\--|-5-----5-----3-----3-----3---2h3-|
E|-0-----0---x-----------x---------|-----------x-----------x---------|

G|---------------------------------|---------------------------------|
D|---------------------------------|---------------------------------|
A|-------------7-----7-----7---9\--|-5-----5-----3-----3-----3-------|
E|-0-----0---x-----------x---------|-----------x-----------x-----3p2-|



Riff:

G|---------------------------------|---------------------------------|
D|--------------------/5-----------|---------------------------------|
A|--------/7-------------5---------|--------/7-----------------------|
E|-0---0-0---6-0-0-0-0-----0-0-9-8-|-7-0-0-0---6-0-0-0-0-3-0-0-3-0-3-|
                                                                     |
                                                                     |
G|---------------------------------|---------------------------------|
D|--------------------/5-----------|-------------------------8-x-11~-|
A|------------/7---------5---------|--------/7-----------7-x---------|
E|---0-0-0-0-0---6-0-0-----0-0-9-8-|-7-0-0-0---6-0-0-0-0-------------|


G|---------------------------------|---------------------------------|
D|---------------------5-----------|---------------------------------|
A|--------/7-------------5---------|--------/7-----------------------|
E|-0-----x---6-------x---------9-8-|-7-----0---6-----------0---3---3-|


G|---------------------------------|---------------------------------|
D|---------------------5-----------|---------------------------------|
A|--------/7-------------5---------|---------------------------------|
E|-----0-----6--------x--------9-8-|-7-------x-0---0---0---0---000---|

            
            
Suggest correction
Creating personal tab
Creating personal tab
You can edit any tab online and save it as your Personal.

You can edit, replace or remove any tab part or add personal notes – all changes will be seen only by you.

Personal tabs can be accessed anytime from any device, even offline.
Learn more »
Give kudos to tab author, rate the tab!
1 2 3 4 5
comments
print report bad tab
guest
You may want to rate the tab now too:
select rating
Wanna post a correction for this tab? Suggest correction