Oops, an error
Loading. Please wait.

Quisiera Ser chords

by Xtreme
53 views 1 this week
no commentswrite comment
1 2 3 4 5
3 more votes to show rating
add to favorites
×
Save as Personal and add changes to this tab that will be seen only by you. Learn more ›
×
You can save this tab as Personal to edit and correct it or add notes. All changes will be seen only by you. Learn more »
launch autoscroll
font size
0
reset
transpose
0
reset
display chords
guitar tuner
edit
Autoscroll
slow
fast
+/-
esc
set tempo
stop
Strumming
There is no strumming pattern for this song yet. and get +5 IQ
LISTO AMIGOS AKI ESTA ALMENOS LOS PRINCIPALES TABS DE LA CANCION
QUE LA DISFRUTEN


e.---7-7/8-8-10--7-8-8------7-7/8-8-10--7-8-8----
B.--------------------------------------------8--
G.-----------------------------------------------


e.---7-7/8-8-10--7-8-8------7-5-3-7-5-3-5-3---1--
B.-----------------------------------------------
G.-----------------------------------------------


F                          Dm                 G
Hoy te dedico esta cancion un beso hasta una flor
C                       Dm          F                   G
porque eres tu mi gran amor la que penetra en todo mi corazon

C                            F
Si pudiera yo expresar este amor que yo he sentido
     Dm                  G
si pudiera yo volar estaria ahora contiqo
        C                    F
porque te amo demasiado es que te quiero a mi lado
      Dm                       G
solo tu tienes esa magia que me hace enloquecer


(cOrO)2 timeS
         F
Quisiera ser en quien tu piensas noche y dia
         C
quisiera ser la luz que alumbra tu mirada
         F
quisiera ser el aire cuando tu respiras
             G                                      F
cuando estes riendo yo ser esa alegria? quisiera ser


e.---7-7/8-8-10--7-8-8------7-7/8-8-10--7-8-8----
B.--------------------------------------------8--
G.-----------------------------------------------


F                          Dm                 G
Hoy te dedico esta cancion un beso hasta una flor
C                       Dm          F                   G
porque eres tu mi gran amor la que penetra en todo mi corazon

C                            F
Si pudiera yo expresar este amor que yo he sentido
     Dm                  G
si pudiera yo volar estaria ahora contiqo
        C                    F
porque te amo demasiado es que te quiero a mi lado
      Dm                       G
solo tu tienes esa magia que me hace enloquecer


cOrO)2 timeS
         F
Quisiera ser en quien tu piensas noche y dia
         C
quisiera ser la luz que alumbra tu mirada
         F
quisiera ser el aire cuando tu respiras
             G                                      F
cuando estes riendo yo ser esa alegria? quisiera ser

Quiisiera ser,

e.---7-7/8-8-10--7-8-8------7-7/8-8-10--7-8-8----
B.--------------------------------------------8--
G.-----------------------------------------------


e.---7-7/8-8-10--7-8-8------7-5-3-7-5-3-5-3---1--
B.-----------------------------------------------
G.-----------------------------------------------

            
            
Suggest correction
Creating personal tab
Creating personal tab
You can edit any tab online and save it as your Personal.

You can edit, replace or remove any tab part or add personal notes – all changes will be seen only by you.

Personal tabs can be accessed anytime from any device, even offline.
Learn more »
Give kudos to tab author, rate the tab!
1 2 3 4 5
comments
print report bad tab
guest
Wanna post a correction for this tab? Suggest correction