Oops, an error
Loading. Please wait.

Siempre tab

43 views 1 this week
no commentswrite comment
1 2 3 4 5
3 more votes to show rating
add to favorites
×
Save as Personal and add changes to this tab that will be seen only by you. Learn more ›
×
You can save this tab as Personal to edit and correct it or add notes. All changes will be seen only by you. Learn more »
launch autoscroll
font size
0
reset
how to read this tab
guitar tuner
edit
Autoscroll
slow
fast
+/-
esc
set tempo
stop
introduccion:

  C5           G5             A5           F5   G5     C5
E/--------------/-------------/-----------/-----------/
B/--------------/-------------/-----------/-----------/
G/--------------/-------------/-----------/-----------/
D/-5-3-2-5-3-2--/-5--3-5--3-2-/-5-3--2---2/---------5-/
A/--------------/-------------/--------5--/-5-3-5-3---/
E/--------------/-------------/-----------/-----------/...x2

C5...(tocas el traste 5 de la cuarta cuerda varias veces)

  C5      G5       A5      F5(G5) C5
E/-----------------/-------------/-------------/
B/-----------------/-------------/-------------/
G/-----------------/-------------/-------------/
D/-5--7-5-3--3---2-/3--3-2-3-----/-------------/
A/-------------5---/---------5-3-/-5-3--5-3--5-/
E/-----------------/-------------/-------------/


  C5    G5                    A5
ziempre me ez dificil de explikarm
F5                      C5
buzko la manera de exprezarme
        G5
junto a ti
   C5   G5                  A5
i trato de converzart i no wevearme
F5                 C5           G5
mi korazon ezta k late i ez por ti
F5            G5  C5 B5          A5/G5
zolo kiero kontart k no puedo dormir
F5           G5
zolo kiero dezirte
C5  B5          A5/G5/F5
k zolo pienzo en ti
G5               C5
k eztoi loko por ti

 C5           G5             A5           F5   G5     C5
E/--------------/-------------/-----------/-----------/
B/--------------/-------------/-----------/-----------/
G/--------------/-------------/-----------/-----------/
D/-5-3-2-5-3-2--/-5--3-5--3-2-/-5-3--2---2/---------5-/
A/--------------/-------------/--------5--/-5-3-5-3---/
E/--------------/-------------/-----------/-----------/...x2

C5...(tocas el traste 5 de la cuarta cuerda varias veces)

C5      G5       A5      F5(G5) C5
E/-----------------/-------------/
B/-----------------/-------------/
G/-----------------/-------------/
D/-5--7-5-3--3---2-/3--3-2-3-----/
A/-------------5---/---------5-3-/
E/-----------------/-------------/

  C5   G5                        A5
ziempre ze aze la kojuda i lo preziente
F5                     C5
me iega al pinxo k lo pienze
        G5
no ze pork
             C5    G5                      A5
entiendez k avbecez eztoi ablando i no me atiend
F5                   C5
k mierda paza por zu mente
       G5
no lo ze
F5           G5    C5  B5          A5/G5
iegara eze momento de dezirt la verdad
F5               G5
no kiero zer alvarito
C5   B5      A5 / G5 / F5
kiero kampeonar aar
G5                     C5
kiero k ia me iegue atrakar

 C5           G5             A5           F5        C5
E/--------------/-------------/-----------/-----------/
B/--------------/-------------/-----------/-----------/
G/--------------/-------------/-----------/-----------/
D/-5-3-2-5-3-2--/-5--3-5--3-2-/-5-3--2---2/---------5-/
A/--------------/-------------/--------5--/-5-3-5-3---/
E/--------------/-------------/-----------/-----------/...x2

F5           G5    C5 B5           A5/G5
zolo kiero iamarte e invitarla a zalir
F5            G5    C5      B5        A5/G5/F5
i kiero zerziorarme zi alko ziente por mi
G5             C5
no me voi a rendir

C5/G5/A5/F5/(G5)/
C5/G5/A5/F5/(G5)/
C5/F5/(G5)/C5

            
            
Suggest correction
Creating personal tab
Creating personal tab
You can edit any tab online and save it as your Personal.

You can edit, replace or remove any tab part or add personal notes – all changes will be seen only by you.

Personal tabs can be accessed anytime from any device, even offline.
Learn more »
Give kudos to tab author, rate the tab!
1 2 3 4 5
comments
print report bad tab
guest
Wanna post a correction for this tab? Suggest correction