Oops, an error
Loading. Please wait.

Banal Na Aso Santong Kabayo tab

version 1
version 1

Whole song

Interactive

by Yano
83,769 views 252 this week
3 commentsread comments
1 2 3 4 5
x 9
add to favorites
×
Save as Personal and add changes to this tab that will be seen only by you. Learn more ›
×
You can save this tab as Personal to edit and correct it or add notes. All changes will be seen only by you. Learn more »
launch autoscroll
font size
0
reset
how to read this tab
guitar tuner
edit
Autoscroll
slow
fast
+/-
esc
set tempo
stop
Author
Unregistered
song: Banal na Aso
Band: Yano
Tabbed by: shortysphere


Tuning: Standard (eBGDAE)

Legend:

 |   ^   Bend
 |   p   Pull-off
 |   h   Hammer-on
 |   /   Slide up
 |   \   Slide down
 |   ~   Let ring
 |   v   Vibrato

[Intro]

Guitar 1
e|--------------------0---------------|
B|---0---3-----0--------3-------------|
G|-----2---4-2------------0-----0-----|(7x)
D|-2------------------------2-0-------|
A|------------------3-----------------|
E|------------------------------------|

e|----------------0-----------------------0-----0----|
B|---0---3---0------3--------0-0-0---3--------3---3--|
G|-----2---2----------0------------2--------0--------|
D|-2--------------------0-2--------------------------|
A|--------------3-----------------------3------------|
E|---------------------------------------------------|


[Verse 1]

Guitar 1
e|-------------------0---------------------------------0-----------------|
B|---0---3--0---0------3---------------0---3--0---0------3---------------|
G|-----2------2----------0----0-2--------2------2----------0-----0-------|
D|-2------------------------2--------2-----------------------2-0---------|
A|-----------------3---------------------------------3-------------------|
E|-----------------------------------------------------------------------|

e|------------------0----------------------------0------------|
B|---0---3--0---0-----3----------------0---0-------3----------|
G|-----2------2---------0-----0------2---2-----------0-----0--|
D|-2----------------------2-0------2-------------------2-0----|
A|----------------3----------------------------3--------------|
E|-------------------------------0----------------------------|


Guitar 2
(not shown actual strumming pattern)
    Em     CM7
e|--0------0--|
B|--0------0--|
G|--0------0--|
D|--2------2--|(4x)
A|--2------3--|
E|--0------0--|


[Chorus]

Guitar 1
(not shown strumming pattern)
   Em       CM7
e|-7---------3------|
B|-8---------5------|
G|-9---------4------|
D|-9---------5------|(4x)
A|-7---------3------|
E|-7---------3------|


[Adlib 1]

Guitar 1
e|-15-12-14-12-------15-12-14-12-------15-12-14-12-------15-12----12-14--12----12----14-|
B|-------------15-12-------------15-12-------------15-12-------13-----------13----13----|
G|--------------------------------------------------------------------------------------|
D|--------------------------------------------------------------------------------------|
A|--------------------------------------------------------------------------------------|
E|--------------------------------------------------------------------------------------|

e|-15-12-14-12-------15-12-14-12-------15-12-14-12-------15-12----12-14--12----------14~-|
B|-------------15-12-------------15-12-------------15-12-------13-----------13-12-13-----|
G|---------------------------------------------------------------------------------------|
D|---------------------------------------------------------------------------------------|
A|---------------------------------------------------------------------------------------|
E|---------------------------------------------------------------------------------------|


Guitar 2
(not shown strumming pattern)
   Em       CM7
e|-0---------0------|
B|-0---------0------|
G|-0---------0------|
D|-2---------2------|(4x)
A|-2---------3------|
E|-0---------0------|


[Verse 2]

Guitar 1
(not shown strumming pattern)
   Em       CM7
e|-7---------3------|
B|-8---------5------|
G|-9---------4------|
D|-9---------5------|(4x)
A|-7---------3------|
E|-7---------3------|


Guitar 2
(not shown strumming pattern)
   Em       CM7
e|-0---------0------|
B|-0---------0------|
G|-0---------0------|
D|-2---------2------|(4x)
A|-2---------3------|
E|-0---------0------|


[Repeat chorus]


[Adlib 2]

Guitar1
e|------------------------------------------------------------------------------------------|
B|-----------------------------------------13--8-7-5-7-5-3-5-3----------5-7-5-7/8^-8-7-5-7--|
G|-------------7------7-9-9-11-9-12--12-11---------------------4~-5-4-5---------------------|
D|---9--9^-7-9----7-9-----------------------------------------------------------------------|
A|-7----------------------------------------------------------------------------------------|
E|------------------------------------------------------------------------------------------|

e|--------------------------------------------------10----10^-10^^10^--|
B|--11^---11^--8h10-8---8---------------8/10--10/12----12--------------|
G|--------------------9---9-----7---7-9--------------------------------|
D|--------------------------7-9---9------------------------------------|
A|---------------------------------------------------------------------|
E|---------------------------------------------------------------------|

e|--------------------------------------------------------------------------------|
B|-12-15-12-10-12-15-12-10-10-12-10-8-7~--7\----7~----7\-----7-----7\----7-----7\-|
G|--------------------------------------------------------------------------------|
D|--------------------------------------------------------------------------------|
A|--------------------------------------------------------------------------------|
E|--------------------------------------------------------------------------------|

e|-------------------------------------------|
B|-7-----7\------7------7\-------7------7\---|
G|-------------------------------------------|
D|-------------------------------------------|
A|-------------------------------------------|
E|-------------------------------------------|


Guitar 2
(not shown actual strumming pattern)
   Em       CM7
e|-0---------0------|
B|-0---------0------|
G|-0---------0------|
D|-2---------2------|(8x)
A|-2---------3------|
E|-0---------0------|


[Verse 3]

Guitar 1
(not shown strumming pattern)
   Em       CM7
e|-7---------3------|
B|-8---------5------|
G|-9---------4------|
D|-9---------5------|(4x)
A|-7---------3------|
E|-7---------3------|


Guitar 2
(not shown strumming pattern)
   Em       CM7
e|-0---------0------|
B|-0---------0------|
G|-0---------0------|
D|-2---------2------|(4x)
A|-2---------3------|
E|-0---------0------|


[Repeat chorus]


[Outro]

Guitar 1
e|-----------------------------------------------------------------------------|
B|---0---3--------3/5-3-------------------0----3-5-3-----3/5-3---3-------------|
G|-----2---4-2-4v-------4v--4-2-0-------2---2--------4-2-------4---4~-4-2-0----|
D|-2------------------------------2---2-------------------------------------2~-|
A|-----------------------------------------------------------------------------|
E|-----------------------------------------------------------------------------|



************************************

| h  Hammer-on
| /  Slide up
| \  Slide down
| ~  Vibrato 

************************************

            
            
Suggest correction
Creating personal tab
Creating personal tab
You can edit any tab online and save it as your Personal.

You can edit, replace or remove any tab part or add personal notes – all changes will be seen only by you.

Personal tabs can be accessed anytime from any device, even offline.
Learn more »
comments
print report bad tab
3 comments total.
0 reply
enderesjr05 112 Feb 27, 2008 08:03 PM

you know bro. its good, like mine...thats why my tab was rejected because its almost the same as yours...by the way its greaat...

0 reply
guitARCHER_ad 10 Jun 22, 2011 01:14 AM

BRO, TANUNG LANG DI BA ONE HALF STEP DOWN YUNG TUNING.KASI ITS SOUNDS MORE EERIE PAG HALFSTEP EH,, EHE,

+1 reply
melody.mabazza 10 Dec 24, 2015 05:44 AM

Ganda sana kaso di aq nkakabasa ng tab eh...kuya kung pwede po sana yun letter po na may lyrics thank you po Merry christmas.

guest
Wanna post a correction for this tab? Suggest correction