Oops, an error
Loading. Please wait.

Senti tab

version 4
version 4

Whole song

by Yano
3,463 views 3 this week
no commentswrite comment
1 2 3 4 5
2 more votes to show rating
add to favorites
×
Save as Personal and add changes to this tab that will be seen only by you. Learn more ›
×
You can save this tab as Personal to edit and correct it or add notes. All changes will be seen only by you. Learn more »
launch autoscroll
font size
0
reset
how to read this tab
guitar tuner
edit
Autoscroll
slow
fast
+/-
esc
set tempo
stop
Author
     Hi guys, this song is from the band Yano. I tabbed this song because it's cool...Enjoy...

Intro and Verse's #1 & #2

e]----------------0---------------0--]
b]--------0-----0---------3-----3----]
g]------2-----2---------2-----2------]
d]----2-----2---------4-----4--------]
a]--0---------------0----------------]
e]-----------------------------------]

Chorus

e]--0--x--0--0-0---------0--x--0--0-0---------]
b]--2--x--2--2-2---------3--x--3--3-3---------]
g]--2--x--2--2-2---------2--x--2--2-2---------] Repeat 4x
d]--2--x--2--2-2--Pause--4--x--4--4-4--Pause--]
a]--0--x--0--0-0---------0--x--0--0-0---------]
e]--0-----0--0-0---------0-----0--0-0---------]

Solo

e]-----------------------------------------------------------------|
b]--------2--------------3--2-------------3--2--3--5----5--5--3-2--|
g]--2--4-------2-2-2--4--------2----2--4---------------------------|
d]-----------------------------------------------------------------|
a]-----------------------------------------------------------------|
e]-----------------------------------------------------------------|

e]-----------------------------------------------------------------|
b]--3---3--2----------2---------------3--2--3-5--------3--2--3--5--|
g]----4---------2--4-----2-2----2--4---------------2--4------------|
d]-----------------------------------------------------------------|
a]-----------------------------------------------------------------|
e]-----------------------------------------------------------------|

e]--5--4h5p4---------------]
b]----------5----3--2h3p2--]
g]-------------------------]
d]-------------------------]
a]-------------------------]
e]-------------------------]

Verse #3

let it ring
e]--0-------0-0-0--------]
b]--2-------2-0-3--------]
g]--2-------2-0-2--------]
d]--2-Pause-2-0-4-Pause--] Repeat 2x
a]--0-------0-0-0--------]
e]--0-------0-0-0--------]

let it ring
e]--0-------0-------0-------0-0-0-0-0-0-0--|
b]--2-------3-------2-------3-3-3-3-3-3-3--|
g]--2-------2-------2-------2-2-2-2-2-2-2--|
d]--2-Pause-4-Pause-2-Pause-4-4-4-4-4-4-4--|
a]--0-------0-------0-------0-0-0-0-0-0-0--|
e]--0-------0-------0-------0-0-0-0-0-0-0--|

e]--0--------0---------|
b]--2--------3---------|
g]--2-Repeat-2-Repeat--|
d]--2-Strum--4-Strum---|
a]--0--------0---------|
e]--0--------0---------|

Chorus

e]--9---9--x-x-9---9--9---9--9--9--9---|
b]--10--10-x-x-10--10-10--10-10-10-10--|
g]-------------------------------------|
d]-------------------------------------|
a]-------------------------------------|
e]-------------------------------------|

e]--10--10-x-x-10-10--10-10-10-10------]
b]--10--10-x-x-10-10--10-10-10-10------]
g]-------------------------------------]
d]-------------------------------------] Repeat 8x
a]-------------------------------------]
e]-------------------------------------]

Last Verse

e]--0-------0-0-0-------0-0-]
b]--2-------2-0-3-------3-0-]
g]--2-------2-0-2-------2-0-]
d]--2-Pause-2-0-4-Pause-4-0-] Repeat 3x
a]--0-------0-0-0-------0-0-]
e]--0-------0-0-0-------0-0-]

e]--0-0--0-0-0-0-0-0-0--]
b]--2-0--3-3-3-3-3-3-3--]
g]--2-0--2-2-2-2-2-2-2--]
d]--2-0--4-4-4-4-4-4-4--]
a]--0-0--0-0-0-0-0-0-0--]
e]--0-0--0-0-0-0-0-0-0--]

e]--0-0-x--0-0-0-0--0-0-x--0-0-0-0--]
b]--2-2-x--2-2-2-2--3-3-x--3-3-3-3--]
g]--2-2-x--2-2-2-2--2-2-x--2-2-2-2--]
d]--2-2-x--2-2-2-2--4-4-x--4-4-4-4--] Repeat 4x
a]--0-0-x--0-0-0-0--0-0-x--0-0-0-0--]
e]--0-0-x--0-0-0-0--0-0-x--0-0-0-0--]

     I hope you'd like this tab that i made. If there's any errors in this tab, you can 
it in your own way or figure it out yourself to make it better. This is my first time so 
support this tab. Thank you...

                                                      MOSES MARTINEZ

            
            
Suggest correction
Creating personal tab
Creating personal tab
You can edit any tab online and save it as your Personal.

You can edit, replace or remove any tab part or add personal notes – all changes will be seen only by you.

Personal tabs can be accessed anytime from any device, even offline.
Learn more »
Give kudos to tab author, rate the tab!
1 2 3 4 5
comments
print report bad tab
guest
You may want to rate the tab now too:
select rating
Wanna post a correction for this tab? Suggest correction