Oops, an error
Loading. Please wait.

Fairy Tail - Main Theme Piano Version tab

version 1
version 1

Whole song

Interactive

52,349 views 12 this week
25 commentsread comments
1 2 3 4 5
x 38
add to favorites
×
Save as Personal and add changes to this tab that will be seen only by you. Learn more ›
×
You can save this tab as Personal to edit and correct it or add notes. All changes will be seen only by you. Learn more »
launch autoscroll
font size
0
reset
how to read this tab
guitar tuner
edit
Autoscroll
slow
fast
+/-
esc
set tempo
stop
Author
Difficulty
This is based on http://www.youtube.com/watch?v=dZ4XMgKHIRg

I hope this is correct and doens't have mistakes anymore ^^

(First tab, btw D:)

Updated, it might look a whole lot different, but it's actually the same as 
before. I just added the ending ^^

And updated once again, some little tweaks here and there. I think this is perfect now.

Tuning: Standard

e||-0---7---7---5-----3--2--0--2--0---7---10---7----5-----2h3--2--0--0----2--------0---0--7-|
B||----------------3-----------------------------8-----3----------------0---3---------------|
G||------------------------------------------------------------------0--------2--------0----|
D||-------------------0-----------------------------0---------------------0-----0----2------|
A||-------------------------3-------------10----------------------3-------------------------|
E||-0-------3---------------------0------------------------------------------------0--------|

e|-7---5-----3---3--2---0--0--2-----0-----7--10-----7---5----3--2--0---0-2----||
B|--------3----------------------3--------------------8----3----------------3-||
G|----------------------------------------------------------------------------||
D|-----------0------0---------0------------------9------0----------------0----||
A|----------------------3--------------2-----10--------------------3----------||
E|-3--------------------------------0-----------------------------------------||

e||-0---0-2-2h3--2-0---------7--5-3-3h5--7-5h7p5--3-2-0---0-0-2-------||
B||------------------3-----3------------------------------0-----3-----||
G||-----0----------------0------------------------------0---------2---||
D||---2----------------0------------0------0------------------0-----0-||
A||---------------------------------------------------3---------------||
E||-0----------------3------------------------------------------------||

e||-0---0-2-2h3--2-0---------7--5-3-3h5--7-5h7p5--3-2-0---0-0h3-2-------||
B||------------------3-----3------------------------------0---------3---||
G||-----0----------------0------------------------------0-------------2-||
D||---2----------------0------------0------0--------------------0-------||
A||---------------------------------------------------3-----------------||
E||-0----------------3--------------------------------------------------||

e||-0---0-2-2h3--2-0---------7--5-3-3h5--7-5h7p5--3-2-0---0-0-2-------||
B||------------------3-----3------------------------------0-----3-----||
G||-----0----------------0------------------------------0---------2---||
D||---2----------------0------------0------0------------------0-----0-||
A||---------------------------------------------------3---------------||
E||-0----------------3------------------------------------------------||

e||-0---0-2-2h3--2-0-----7h10--7\5--5--3--3h5--7-5h7p5--3-2-0---0-0-2-------||
B||------------------3-0----------------------------------------0-----3-----||
G||-----0-----------------------------------------------------0---------2---|| 
D||---2-----------------------------------0------0------------------0-----0-||
A||---------------------------------------------------------3---------------||
E||-0----------------3------------------------------------------------------||(x2)

e||-0---0-2-2h3--2-0-----7h10--7\5--5--3--3h5--7-5h7p5--3-2-0---0-0h3-2-------||
B||------------------3-0----------------------------------------0---------3---||
G||-----0-----------------------------------------------------0-------------2-||
D||---2-----------------------------------0------0--------------------0-------||
A||---------------------------------------------------------3-----------------||
E||-0----------------3--------------------------------------------------------||


e||-0-2-0-----------0----0-2-0------------3-2--0-2-0-----------0---3-2-0-2-0-------0---2h3-2-||
B||-------3-0---0-3---3--------3-0----0-3------------3-0---0-3---3-----------3-0-3---3-------||
G||-----------2--------------------2---------------------2-----------------------------------||
D||--------------------------------------------0-------------------------------0-------------||
A||----------------------------------------------------------------3-----3-------------------||
E||-0---------0---0------3---------0---------------------0-----------------------------------||(x2)

e||-0--------------0-||
B||----0-----------0-||
G||-------0--------0-||
D||----------2-----2-||
A||-------------2--2-||
E||-0--------------0-||



************************************

| h  Hammer-on
| p  Pull-off
| \  Slide down

************************************

            
            
Suggest correction
Creating personal tab
Creating personal tab
You can edit any tab online and save it as your Personal.

You can edit, replace or remove any tab part or add personal notes – all changes will be seen only by you.

Personal tabs can be accessed anytime from any device, even offline.
Learn more »
comments
print report bad tab
25 comments total. Showing first comments. show 3 bad comments
guest
You may want to rate the tab now too:
select rating
Wanna post a correction for this tab? Suggest correction