Oops, an error
Loading. Please wait.

Anal Narcotic tab

version 1
version 1

Whole song

Interactive

65 views 1 this week
no commentswrite comment
1 2 3 4 5
3 more votes to show rating
add to favorites
×
Save as Personal and add changes to this tab that will be seen only by you. Learn more ›
×
You can save this tab as Personal to edit and correct it or add notes. All changes will be seen only by you. Learn more »
launch autoscroll
font size
0
reset
how to read this tab
guitar tuner
edit
Autoscroll
slow
fast
+/-
esc
set tempo
stop
ANAL NARCOTIC
As recorded by Yattering
(From the 2000 Album MURDER'S CONCEPT)
Copyright (c) Season of Mist 2000


Arranged by Yattering
Transcribed by Steve Rubaszek
Version - probably final - November 07, 2005


Gtr I (D G C F A D) - 'Guitar 1'
Gtr II (D G C F A D) - 'Guitar 2'
Gtr III (D G C F A D) - 'Guitar 3'


0:00
Q=230
4/4
Gtrs I, II
PM|
|---------|--------------|-------------|
|---------|--------------|-------------|
|---------|--------------|-------------|
|---------|--------------|-------------|
|---------|-5--6--5-5-3--|-5-5-6-3-----|
|---------|-3--4--3-3-1--|-3-3-4-1-----|


PM-----| PM-----| PM-----| PM-----|
||-----------------|----------------|----------------|----------------|
||o----------------|----------------|----------------|----------------|
||-----0-0-1-2--0--|----0-0-1-2--0--|----0-0-1-2--0--|----0-0-1-2--0--|
||-----0-0-1-1--0--|----0-0-1-1--0--|----0-0-1-1--0--|----0-0-1-1--0--|
||o-3--------------|-3--------------|-3--------------|-3--------------|
||--1--------------|-1--------------|-1--------------|-1--------------|


Gtr I
T T T T T T T T T T T T T T T T
|-------------------------------------|--------------------------------------|
|-10p6-10p6-10p6-10p6-----------------|-10p6-10p6-10p6-10p6------------------|
|---------------------8p4-8p4-8p4-8p4-|---------------------8p4-8p4-8p4-8p4--|
|-------------------------------------|--------------------------------------|
|-------------------------------------|--------------------------------------|
|-------------------------------------|--------------------------------------|
|
| Gtr II
| T T T T T T T T T T T T T T T T
|-------------------------------------|--------------------------------------|
|-------------------------------------|--------------------------------------|
|-------------------------------------|--------------------------------------|
|-------------------------------------|--------------------------------------|
|--8p4--8p4--8p4--8p4-----------------|--8p4--8p4--8p4--8p4------------------|
|---------------------7p3-7p3-7p3-7p3-|---------------------7p3-7p3-7p3-7p3--|


T T T T T T T T T T T T T T T T
3x
|-------------------------------------|---------------------------------------||
|-10p6-10p6-10p6-10p6-----------------|-10p6-10p6-10p6-10p6------------------o||
|---------------------8p4-8p4-8p4-8p4-|---------------------8p4-8p4-8p4-8p4---||
|-------------------------------------|---------------------------------------||
|-------------------------------------|--------------------------------------o||
|-------------------------------------|---------------------------------------||
|
| T T T T T T T T T T T T T T T T
| 3x
|-------------------------------------|---------------------------------------||
|-------------------------------------|--------------------------------------o||
|-------------------------------------|---------------------------------------||
|-------------------------------------|---------------------------------------||
|--8p4--8p4--8p4--8p4-----------------|--8p4--8p4--8p4--8p4------------------o||
|---------------------7p3-7p3-7p3-7p3-|---------------------7p3-7p3-7p3-7p3---||


0:32
T T T T T T T T
||----------------------------------|
||o-----------------9p5-9p5-9p5-9p5-|
||--8p4-8p4-8p4-8p4-----------------|
||----------------------------------|
||o---------------------------------|
||----------------------------------|
|
| T T T T T T T T
||----------------------------------|
||o---------------------------------|
||----------------------------------|
||----------------------------------|
||o-----------------7p3-7p3-7p3-7p3-|
||--7p3-7p3-7p3-7p3-----------------|


T T T T T T T T
3x
|------------------------------------------||
|-10p6-10p6-10p6-10p6-11p7-11p7-11p7-11p7-o||
|------------------------------------------||
|------------------------------------------||
|-----------------------------------------o||
|------------------------------------------||
|
| T T T T T T T T
| 3x
|------------------------------------------||
|-----------------------------------------o||
|------------------------------------------||
|------------------------------------------||
|--8p4--8p4--8p4--8p4--9p5--9p5--9p5--9p5-o||
|------------------------------------------||


7/8
T T T T T T T T T T T T T T T
|---------------------------------|---------------------7p3-7p3-7p3-|
|-----------------9p5-9p5-9p5-9p5-|-10p6-10p6-10p6-10p6-------------|
|-8p4-8p4-8p4-8p4-----------------|---------------------------------|
|---------------------------------|---------------------------------|
|---------------------------------|---------------------------------|
|---------------------------------|---------------------------------|
|
| T T T T T T T T T T T T T T T
|---------------------------------|---------------------------------|
|---------------------------------|---------------------------------|
|---------------------------------|---------------------------------|
|---------------------------------|---------------------9p5-9p5-9p5-|
|-----------------7p3-7p3-7p3-7p3-|--8p4--8p4--8p4--8p4-------------|
|-7p3-7p3-7p3-7p3-----------------|---------------------------------|


6/8 4/4
T T T T T T T T T
3x
||--6p2-6p2-6p2-7p3-7p3-7p3--||-6p2-6p2-6p2-3---|-(3)--------|-(3)----
||o-------------------------o||-----------------|------------|--------
||---------------------------||-----------------|------------|--------
||---------------------------||-----------------|------------|--------
||o-------------------------o||-----------------|------------|--------
||---------------------------||-----------------|------------|--------
|
| T T T T T T T T T
| 3x
||---------------------------||-----------------|------------|--------
||o-------------------------o||-----------------|------------|--------
||---------------------------||-----------------|------------|--------
||--8p4-8p4-8p4-9p5-9p5-9p5--||-8p4-8p4-8p4-5---|-(5)--------|-(5)----
||o-------------------------o||-----------------|------------|--------
||---------------------------||-----------------|------------|--------


0:45
Gtrs I, II
PM-----| PM-----| PM-----| PM-----|
|----------------|----------------|----------------|---------------|
|----------------|----------------|----------------|---------------|
|----0-0-1-2--0--|----0-0-1-2--0--|----0-0-1-2--0--|----0-0-1-2--0-|
|----0-0-1-1--0--|----0-0-1-1--0--|----0-0-1-1--0--|----0-0-1-1--0-|
|-3--------------|-3--------------|-3--------------|-3-------------|
|-1--------------|-1--------------|-1--------------|-1-------------|


PM---------| PM---------|
|--------------------------|--------------------------|
|--------------------------|--------------------------|
|----0---0---1-------2--0--|----0---0---1-------2--0--|
|----0---0---1-------1--0--|----0---0---1-------1--0--|
|-3------------------------|-3------------------------|
|-1------------------------|-1------------------------|
|
| Gtr III
| PM----| PM----|
|--------------18p14-------|--------------18p14-------|
|----------x---------------|----------x---------------|
|------x-------------------|------x-------------------|
|----x---------------------|----x---------------------|
|--------------------------|--------------------------|
|--------------------------|--------------------------|


PM---------| PM---------|
|--------------------------|----------------------------|
|--------------------------|----------------------------|
|----0---0---1-------2--0--|----0---0---1-------2--0----|
|----0---0---1-------1--0--|----0---0---1-------1--0----|
|-3------------------------|-3--------------------------|
|-1------------------------|-1--------------------------|
|
| PM----| PM----|
|--------------18p14-------|--------------18p14---------|
|----------x---------------|----------x-----------------|
|------x-------------------|------x---------------------|
|----x---------------------|----x-----------------------|
|--------------------------|----------------------------|
|--------------------------|----------------------------|


0:53
Gtrs I, II
PM----------------------| PM---|
3x
|----------------||-----------------||--------------
|----------------||o---------------o||--------------
|----------------||-----0-0---------||----0-0-------
|----------------||-----0-0-10--8---||----0-0-5--8--
|-5--6--5-5-5-3--||o-5-------9--7--o||-5------4--7--
|-3--4--3-3-3-1--||--3--------------||-3------------


PM-| PM---| PM---|
3x
|-------------||-----------------||--------------
|-------------||o---------------o||--------------
|-------------||-----0-0---------||----0-0-------
|-------------||-----0-0-10--8---||----0-0-5--8--
|-5--5--5\----||o-5-------9--7--o||-5------4--7--
|-3--3--3\----||--3--------------||-3------------


PM---| PM---|
3x
||-----------------||-------------
||o---------------o||-------------
||-----0-0---------||----0-0------
||-----0-0-10--8---||----0-0-5--8-
||o-5-------9--7--o||-5------4--7-
||--3--------------||-3-----------


1:08
6/4
PM-----------------------------------------------
||--------------------------------------------------|
||o-------------------------------------------------|
||--------------------------------------------------|
||------------------3-3-3-3-------------------------|
||o---------5-5-5-5---------4-4-4-4-5-5-5-5---------|
||--1-1-1-1---------------------------------2-2-2-2-|


-----------------------------------------------|
4x
|----------------------------------------------------||
|---------------------------------------------------o||
|----------------------------------------------------||
|-----------------3-3-3-3-----------------2-2-2-2----||
|---------5-5-5-5---------4-4-4-4-5-5-5-5-----------o||
|-1-1-1-1--------------------------------------------||


4/4
PM---| PM---| PM---| PM---|
3x 3x
||-----------------||--------------||-----------------||-------------|
||o---------------o||--------------||o---------------o||-------------|
||-----0-0---------||----0-0-------||-----0-0---------||----0-0------|
||-----0-0-10--8---||----0-0-5--8--||-----0-0-10--8---||----0-0-5--8-|
||o-5-------9--7--o||-5------4--7--||o-5-------9--7--o||-5------4--7-|
||--3--------------||-3------------||--3--------------||-3-----------|


6/4
PM-----------------------------------------------
||--------------------------------------------------|
||o-------------------------------------------------|
||--------------------------------------------------|
||------------------3-3-3-3-------------------------|
||o---------5-5-5-5---------4-4-4-4-5-5-5-5---------|
||--1-1-1-1---------------------------------2-2-2-2-|


-| PM----------------------------------------|
|----------------------------------------------------||
|---------------------------------------------------o||
|----------------------------------------------------||
|-----------------3-3-3-3-----------------2-2-2-2----||
|---------5-5-5-5---------4-4-4-4-5-5-5-5-----------o||
|-1-1-1-1--------------------------------------------||


Gtr I
|-------------------------------------------------|
|-------------------------------------------------|
|-------------------------------------------------|
|-------------------------------------------------|
|-3---------------------------------------4-------|
|-1---------------------------------------2-------|
|
| Gtr II
| PM-----------------------------------------------
|-------------------------------------------------|
|-------------------------------------------------|
|-------------------------------------------------|
|-----------------3-3-3-3-------------------------|
|---------5-5-5-5---------4-4-4-4-5-5-5-5---------|
|-1-1-1-1---------------------------------2-2-2-2-|


PM------------|
|-------------------------------------------------|
|-------------------------------------------------|
|-------------------------------------------------|
|-----------------------------------------2-2-2-2-|
|-3-------------------------------5-5-5-5---------|
|-1-----------------------------------------------|
|
|-----------------------------------------------|
|-------------------------------------------------|
|-------------------------------------------------|
|-------------------------------------------------|
|-----------------3-3-3-3-----------------2-2-2-2-|
|---------5-5-5-5---------4-4-4-4-5-5-5-5---------|
|-1-1-1-1-----------------------------------------|


|-------------------------------------------------|
|-------------------------------------------------|
|-------------------------------------------------|
|-------------------------------------------------|
|-3---------------------------------------4-------|
|-1---------------------------------------2-------|
|
| PM-----------------------------------------------
|-------------------------------------------------|
|-------------------------------------------------|
|-------------------------------------------------|
|-----------------3-3-3-3-------------------------|
|---------5-5-5-5---------4-4-4-4-5-5-5-5---------|
|-1-1-1-1---------------------------------2-2-2-2-|


|-------------------------------------------------|
|-------------------------------------------------|
|-------------------------------------------------|
|-------------------------------------------------|
|-3-----------------------------------------------|
|-1-----------------------------------------------|
|
|-----------------------------------------------|
|-------------------------------------------------|
|-------------------------------------------------|
|-------------------------------------------------|
|-----------------3-3-3-3-----------------2-2-2-2-|
|---------5-5-5-5---------4-4-4-4-5-5-5-5---------|
|-1-1-1-1-----------------------------------------|


1:40
4/4
Gtrs I, II
PM-|
8x
||-------------|------------||
||o------------|-----------o||
||--------7----|-8----10----||
||--------6----|-7-----9----||
||o-3--3--5----|-6-----8---o||
||--1--1-------|------------||


1:56
6/4
Gtr I
|-------------------------------------------------|
|-------------------------------------------------|
|-------------------------------------------------|
|-------------------------------------------------|
|-3---------------------------------------4-------|
|-1---------------------------------------2-------|
|
| Gtr II
| PM-----------------------------------------------
|-------------------------------------------------|
|-------------------------------------------------|
|-------------------------------------------------|
|-----------------3-3-3-3-------------------------|
|---------5-5-5-5---------4-4-4-4-5-5-5-5---------|
|-1-1-1-1---------------------------------2-2-2-2-|


PM------------|
|---------------------------------------------------|
|---------------------------------------------------|
|---------------------------------------------------|
|-----------------------------------------2-2-2-2---|
|-3-------------------------------5-5-5-5-----------|
|-1-------------------------------------------------|
|
|-----------------------------------------------|
|---------------------------------------------------|
|---------------------------------------------------|
|---------------------------------------------------|
|-----------------3-3-3-3-----------------2-2-2-2---|
|---------5-5-5-5---------4-4-4-4-5-5-5-5-----------|
|-1-1-1-1-------------------------------------------|


|-------------------------------------------------|
|-------------------------------------------------|
|-------------------------------------------------|
|-------------------------------------------------|
|-3---------------------------------------4-------|
|-1---------------------------------------2-------|
|
| PM-----------------------------------------------
|-------------------------------------------------|
|-------------------------------------------------|
|-------------------------------------------------|
|-----------------3-3-3-3-------------------------|
|---------5-5-5-5---------4-4-4-4-5-5-5-5---------|
|-1-1-1-1---------------------------------2-2-2-2-|


PM------------|
|-------------------------------------------------|
|-------------------------------------------------|
|-------------------------------------------------|
|-----------------------------------------2-2-2-2-|
|-3-------------------------------5-5-5-5---------|
|-1-----------------------------------------------|
|
|-----------------------------------------------|
|-------------------------------------------------|
|-------------------------------------------------|
|-------------------------------------------------|
|-----------------3-3-3-3-----------------2-2-2-2-|
|---------5-5-5-5---------4-4-4-4-5-5-5-5---------|
|-1-1-1-1-----------------------------------------|


6/4
Gtrs I, II
PM-----------------------------------------------
||--------------------------------------------------|
||o-------------------------------------------------|
||--------------------------------------------------|
||------------------3-3-3-3-------------------------|
||o---------5-5-5-5---------4-4-4-4-5-5-5-5---------|
||--1-1-1-1---------------------------------2-2-2-2-|


-----------------------------------------------|
|----------------------------------------------------||
|---------------------------------------------------o||
|----------------------------------------------------||
|-----------------3-3-3-3-----------------2-2-2-2----||
|---------5-5-5-5---------4-4-4-4-5-5-5-5-----------o||
|-1-1-1-1--------------------------------------------||


PM-------------------------------------
||----------------------------------------|
||o---------------------------------------|
||----------------------------------------|
||--------3-3-3-3-------------------------|
||o-3--3----------4-4-4-4-5-5-5-5---------|
||--1--1--------------------------2-2-2-2-|


-------------------------------------|
|-----------------------------------------||
|----------------------------------------o||
|-----------------------------------------||
|-------3-3-3-3-----------------2-2-2-2---||
|-3--3----------4-4-4-4-5-5-5-5----------o||
|-1--1------------------------------------||


2:15
Q=120
4/4
Gtr I
PM| PM| PM--|
|--------------------------|----------------------|
|--------------------------|----------------------|
|--------------------------|----------------------|
|--------------------------|----------------------|
|--------------------------|-1-----3-----4--------|
|--------------------------|-1-3-4-3-4-5-4-4-5-7\-|
|
| Gtr II
| PM| PM| PM------| PM| PM| PM--|
|--------------------------|----------------------|
|--------------------------|----------------------|
|--------------------------|----------------------|
|--------------------------|----------------------|
|-1-----3-----4------------|-1-----3-----4--------|
|-1-3-4-3-4-5-4-4-5-7-5-4\-|-1-3-4-3-4-5-4-4-5-7\-|


Gtrs I, II
PM| PM| PM------| PM| PM| PM--|
6x
||---------------------------|-----------------------||
||o--------------------------|----------------------o||
||---------------------------|-----------------------||
||---------------------------|-----------------------||
||o-1-----3-----4------------|-1-----3-----4--------o||
||--1-3-4-3-4-5-4-4-5-7-5-4\-|-1-3-4-3-4-5-4-4-5-7\--||


2:41
Q=210
PM PM-|
4x
||------------------||---------|---------|---------|-----|
||o----------------o||---------|---------|---------|-----|
||-----0-0h1-2--0---||---------|---------|---------|-----|
||-----0-0h1-1--0---||---------|---------|---------|-----|
||o-5--------------o||---------|---------|---------|-----|
||--3---------------||---------|---------|---------|-----|


PM-------|
8x
||--------------|----------------------------------||
||o-------------|---------------------------------o||
||--------------|----------------------------------||
||--------------|----------------------------------||
||o-5--7--5--7--|-4-4-4-4-6-6-6-6-4-4-4-4-6-6-6-6-o||
||--3--5--3--5--|-3-3-3-3-5-5-5-5-3-3-3-3-5-5-5-5--||


3:04
|---------|---------|---------|-----|
|---------|---------|---------|-----|
|---------|---------|---------|-----|
|---------|---------|---------|-----|
|---------|---------|---------|-----|
|---------|---------|---------|-----|


PM-------|
8x
||--------------|----------------------------------||
||o-------------|---------------------------------o||
||--------------|----------------------------------||
||--------------|----------------------------------||
||o-5--7--5--7--|-4-4-4-4-6-6-6-6-4-4-4-4-6-6-6-6-o||
||--3--5--3--5--|-3-3-3-3-5-5-5-5-3-3-3-3-5-5-5-5--||


3:25
Q=110
4/4
Gtr I
PM| PM| PM--|
|--------------------------|----------------------|
|--------------------------|----------------------|
|--------------------------|----------------------|
|--------------------------|----------------------|
|--------------------------|-1-----3-----4--------|
|--------------------------|-1-3-4-3-4-5-4-4-5-7\-|
|
| Gtr II
| PM| PM| PM------| PM| PM| PM--|
|--------------------------|----------------------|
|--------------------------|----------------------|
|--------------------------|----------------------|
|--------------------------|----------------------|
|-1-----3-----4------------|-1-----3-----4--------|
|-1-3-4-3-4-5-4-4-5-7-5-4\-|-1-3-4-3-4-5-4-4-5-7\-|


Gtrs I, II
PM| PM| PM------| PM| PM| PM--|
6x
||---------------------------|-----------------------||
||o--------------------------|----------------------o||
||---------------------------|-----------------------||
||---------------------------|-----------------------||
||o-1-----3-----4------------|-1-----3-----4--------o||
||--1-3-4-3-4-5-4-4-5-7-5-4\-|-1-3-4-3-4-5-4-4-5-7\--||


3:56
|-----------|-----*|
|-----------|-----*|
|-----------|-----*|
|-----------|-----*|
|-3-3-------|-----*|
|-1-1-------|-----*|

End.

            
            
Suggest correction
Creating personal tab
Creating personal tab
You can edit any tab online and save it as your Personal.

You can edit, replace or remove any tab part or add personal notes – all changes will be seen only by you.

Personal tabs can be accessed anytime from any device, even offline.
Learn more »
Give kudos to tab author, rate the tab!
1 2 3 4 5
comments
print report bad tab
guest
You may want to rate the tab now too:
select rating
Wanna post a correction for this tab? Suggest correction