Oops, an error
Loading. Please wait.

Till Its Gone tab

version 1
version 1

Whole song

  • This is the first acoustic version and version wit... Show more
  • This version is different from others because it p... Show more
4,162 views 135 this week
no commentswrite comment
1 2 3 4 5
2 more votes to show rating
add to favorites
×
Save as Personal and add changes to this tab that will be seen only by you. Learn more ›
×
You can save this tab as Personal to edit and correct it or add notes. All changes will be seen only by you. Learn more »
launch autoscroll
font size
0
reset
how to read this tab
guitar tuner
edit
Autoscroll
slow
fast
+/-
esc
set tempo
stop
Author
Difficulty
Play with your fingers and mute the low E with the edge of your palm
This song is at about 100bpm and is in 3/4 timing
From this session/video https://youtu.be/7lhFzmQ-lg8

[Intro]

e|---------------------------------------------------|
B|---------------------------------------------------|
G|-----------0-----------0-----------0-----------0---|
D|---2---0h2-----2---0h2-----2---0h2-----2---0h2-----|
A|---------------------------------------------------|
E|-0---0-------0---0-------0---0-------0---0---------|

e|---------------------------------------------------|
B|---------------------------------------------------|
G|-----------0-----------0-----------0-----------0---|
D|---2---0h2-----2---0h2-----2---0h2-----2---0h2-----|
A|---------------------------------------------------|
E|-0---0-------0---0-------0---0-------0---0---------|

e|---------------------------------------------------|
B|---------------------------------------------------|
G|-----------0-----------0-----------0-----------0---|
D|---2---0h2-----2---0h2-----2---0h2-----2---0h2-----|
A|---------------------------------------------------|
E|-0---0-------0---0-------0---0-------0---0---------|

e|---------------------------------------------------|
B|---------------------------------------------------|
G|-----------0-----------0-----------0-----0---------|
D|---2---0h2-----2---0h2-----2---0h2-----5-------7---|
A|---------------------------------------------0-----|
E|-0---0-------0---0-------0---0-------3-----5-------|


[Verse]

e|---------------------------------------------------|
B|---------------------------------------------------|
G|-----------0-----------0-----------0-----------0---|
D|---2---0h2-----2---0h2-----2---0h2-----2---0h2-----|
A|---------------------------------------------------|
E|-0---0-------0---0-------0---0-------0---0---------|

e|---------------------------------------------------|
B|---------------------------------------------------|
G|-----------0-----------0-----------0-----0---------|
D|---2---0h2-----2---0h2-----2---0h2-----5-------7---|
A|---------------------------------------------0-----|
E|-0---0-------0---0-------0---0-------3-----5-------|

e|---------------------------------------------------|
B|---------------------------------------------------|
G|-----------0-----------0-----------0-----------0---|
D|---2---0h2-----2---0h2-----2---0h2-----2---0h2-----|
A|---------------------------------------------------|
E|-0---0-------0---0-------0---0-------0---0---------|

e|---------------------------------------------------|
B|---------------------------------------------------|
G|-----------0-----------0-----------0-----0---------|
D|---2---0h2-----2---0h2-----2---0h2-----5-------7---|
A|---------------------------------------------0-----|
E|-0---0-------0---0-------0---0-------3-----5-------|

e|---------------------------------------------------|
B|---------------------------------------------------|
G|-----------0-----------0-----------0-----------0---|
D|---2---0h2-----2---0h2-----2---0h2-----2---0h2-----|
A|---------------------------------------------------|
E|-0---0-------0---0-------0---0-------0---0---------|

e|---------------------------------------------------|
B|---------------------------------------------------|
G|-----------0-----------0-----------0-----0---------|
D|---2---0h2-----2---0h2-----2---0h2-----5-------7---|
A|---------------------------------------------0-----|
E|-0---0-------0---0-------0---0-------3-----5-------|

e|---------------------------------------------------|
B|---------------------------------------------------|
G|-----------0-----------0-----------0-----------0---|
D|---2---0h2-----2---0h2-----2---0h2-----2---0h2-----|
A|---------------------------------------------------|
E|-0---0-------0---0-------0---0-------0---0---------|

e|-----------------------------------------------------|
B|-----------------------------------------------------|
G|-----------0-----------0-----------0--x-x-x--x-x-x---|
D|---2---0h2-----2---0h2-----2---0h2----x-x-x--x-x-x---|
A|--------------------------------------x-x-x--x-x-x---|
E|-0---0-------0---0-------0---0-----------------------|

[Chorus]

e|--0--------2--------0--------0--------|
B|--0--------3--------1--------1--------|
G|--0--------2--------0--------2--------|
D|--2--------0--------2--------2--------|
A|--2-----------------3--------0--------|
E|--0-----------------------------------|

e|--0--------2--------0--------0--------|
B|--0--------3--------1--------1--------|
G|--0--------2--------0--------2--------|
D|--2--------0--------2--------2--------|
A|--2-----------------3--------0--------|
E|--0-----------------------------------|

e|--0--------2--------0--------0--------|
B|--0--------3--------1--------1--------|
G|--0--------2--------0--------2--------|
D|--2--------0--------2--------2--------|
A|--2-----------------3--------0--------|
E|--0-----------------------------------|

e|--0--------2--------0--------0--------|
B|--0--------3--------1--------1--------|
G|--0--------2--------0--------2--------|
D|--2--------0--------2--------2--------|
A|--2-----------------3--------0--------|
E|--0-----------------------------------|

e|---------------------------------------------------|
B|---------------------------------------------------|
G|-----------0-----------0-----------0-----------0---|
D|---2---0h2-----2---0h2-----2---0h2-----2---0h2-----|
A|---------------------------------------------------|
E|-0---0-------0---0-------0---0-------0---0---------|

e|---------------------------------------------------|
B|---------------------------------------------------|
G|-----------0-----------0-----------0-----------0---|
D|---2---0h2-----2---0h2-----2---0h2-----2---0h2-----|
A|---------------------------------------------------|
E|-0---0-------0---0-------0---0-------0---0---------|

e|---------------------------------------------------|
B|---------------------------------------------------|
G|-----------0-----------0-----------0-----------0---|
D|---2---0h2-----2---0h2-----2---0h2-----2---0h2-----|
A|---------------------------------------------------|
E|-0---0-------0---0-------0---0-------0---0---------|

e|---------------------------------------------------|
B|---------------------------------------------------|
G|-----------0-----------0-----------0-----0---------|
D|---2---0h2-----2---0h2-----2---0h2-----5-------7---|
A|---------------------------------------------0-----|
E|-0---0-------0---0-------0---0-------3-----5-------|

[Verse]

e|---------------------------------------------------|
B|---------------------------------------------------|
G|-----------0-----------0-----------0-----------0---|
D|---2---0h2-----2---0h2-----2---0h2-----2---0h2-----|
A|---------------------------------------------------|
E|-0---0-------0---0-------0---0-------0---0---------|

e|---------------------------------------------------|
B|---------------------------------------------------|
G|-----------0-----------0-----------0-----0---------|
D|---2---0h2-----2---0h2-----2---0h2-----5-------7---|
A|---------------------------------------------0-----|
E|-0---0-------0---0-------0---0-------3-----5-------|

e|---------------------------------------------------|
B|---------------------------------------------------|
G|-----------0-----------0-----------0-----------0---|
D|---2---0h2-----2---0h2-----2---0h2-----2---0h2-----|
A|---------------------------------------------------|
E|-0---0-------0---0-------0---0-------0---0---------|

e|---------------------------------------------------|
B|---------------------------------------------------|
G|-----------0-----------0-----------0-----0---------|
D|---2---0h2-----2---0h2-----2---0h2-----5-------7---|
A|---------------------------------------------0-----|
E|-0---0-------0---0-------0---0-------3-----5-------|

e|---------------------------------------------------|
B|---------------------------------------------------|
G|-----------0-----------0-----------0-----0---------|
D|---2---0h2-----2---0h2-----2---0h2-----5-------7---|
A|---------------------------------------------0-----|
E|-0---0-------0---0-------0---0-------3-----5-------|

e|---------------------------------------------------|
B|---------------------------------------------------|
G|-----------0-----------0-----------0-----0---------|
D|---2---0h2-----2---0h2-----2---0h2-----5-------7---|
A|---------------------------------------------0-----|
E|-0---0-------0---0-------0---0-------3-----5-------|

e|---------------------------------------------------|
B|---------------------------------------------------|
G|-----------0-----------0-----------0-----0---------|
D|---2---0h2-----2---0h2-----2---0h2-----5-------7---|
A|---------------------------------------------0-----|
E|-0---0-------0---0-------0---0-------3-----5-------|

e|-----------------------------|
B|-----------------------------|
G|-----------0-----------0-----|
D|---2---0h2-----2---0h2-------|
A|-----------------------------|
E|-0---0-------0---0-------0---|


[Chorus]

e|--0--------2--------0--------0--------|
B|--0--------3--------1--------1--------|
G|--0--------2--------0--------2--------|
D|--2--------0--------2--------2--------|
A|--2-----------------3--------0--------|
E|--0-----------------------------------|

e|--0--------2--------0--------0--------|
B|--0--------3--------1--------1--------|
G|--0--------2--------0--------2--------|
D|--2--------0--------2--------2--------|
A|--2-----------------3--------0--------|
E|--0-----------------------------------|

e|--0--------2--------0--------0--------|
B|--0--------3--------1--------1--------|
G|--0--------2--------0--------2--------|
D|--2--------0--------2--------2--------|
A|--2-----------------3--------0--------|
E|--0-----------------------------------|

e|--0--------2--------0--------0--------|
B|--0--------3--------1--------1--------|
G|--0--------2--------0--------2--------|
D|--2--------0--------2--------2--------|
A|--2-----------------3--------0--------|
E|--0-----------------------------------|

e|---------------------------------------------------|
B|---------------------------------------------------|
G|-----------0-----------0-----------0-----------0---|
D|---2---0h2-----2---0h2-----2---0h2-----2---0h2-----|
A|---------------------------------------------------|
E|-0---0-------0---0-------0---0-------0---0---------|

e|---------------------------------------------------|
B|---------------------------------------------------|
G|-----------0-----------0-----------0-----------0---|
D|---2---0h2-----2---0h2-----2---0h2-----2---0h2-----|
A|---------------------------------------------------|
E|-0---0-------0---0-------0---0-------0---0---------|

e|---------------------------------------------------|
B|---------------------------------------------------|
G|-----------0-----------0-----------0-----------0---|
D|---2---0h2-----2---0h2-----2---0h2-----2---0h2-----|
A|---------------------------------------------------|
E|-0---0-------0---0-------0---0-------0---0---------|

e|---------------------------------------------------|
B|---------------------------------------------------|
G|-----------0-----------0-----------0-----0---------|
D|---2---0h2-----2---0h2-----2---0h2-----5-------7---|
A|---------------------------------------------0-----|
E|-0---0-------0---0-------0---0-------3-----5-------|

[Vocal and Drums Only Bridge] - 4 Bars Rest

e|---------------------------------------------------|
B|---------------------------------------------------|
G|-----------0-----------0-----------0-----------0---|
D|---2---0h2-----2---0h2-----2---0h2-----2---0h2-----|
A|---------------------------------------------------|
E|-0---0-------0---0-------0---0-------0---0---------|

e|---------------------------------------------------|
B|---------------------------------------------------|
G|-----------0-----------0-----------0-----0---------|
D|---2---0h2-----2---0h2-----2---0h2-----5-------7---|
A|---------------------------------------------0-----|
E|-0---0-------0---0-------0---0-------3-----5-------|

e|---------------------------------------------------|
B|---------------------------------------------------|
G|-----------0-----------0-----------0-----------0---|
D|---2---0h2-----2---0h2-----2---0h2-----2---0h2-----|
A|---------------------------------------------------|
E|-0---0-------0---0-------0---0-------0---0---------|

e|-----------------------------|
B|-----------------------------|
G|-----------0-----------0-----|
D|---2---0h2-----2---0h2-------|
A|-----------------------------|
E|-0---0-------0---0-------0---|

[Chorus]

e|--0--------2--------0--------0--------|
B|--0--------3--------1--------1--------|
G|--0--------2--------0--------2--------|
D|--2--------0--------2--------2--------|
A|--2-----------------3--------0--------|
E|--0-----------------------------------|

e|--0--------2--------0--------0--------|
B|--0--------3--------1--------1--------|
G|--0--------2--------0--------2--------|
D|--2--------0--------2--------2--------|
A|--2-----------------3--------0--------|
E|--0-----------------------------------|

e|--0--------2--------0--------0--------|
B|--0--------3--------1--------1--------|
G|--0--------2--------0--------2--------|
D|--2--------0--------2--------2--------|
A|--2-----------------3--------0--------|
E|--0-----------------------------------|

e|--0--------2--------0--------0--------|
B|--0--------3--------1--------1--------|
G|--0--------2--------0--------2--------|
D|--2--------0--------2--------2--------|
A|--2-----------------3--------0--------|
E|--0-----------------------------------|

2 Bar Rest

[Outro]

e|---------------------------------------------------|
B|---------------------------------------------------|
G|-----------0-----------0-----------0-----------0---|
D|---2---0h2-----2---0h2-----2---0h2-----2---0h2-----|
A|---------------------------------------------------|
E|-0---0-------0---0-------0---0-------0---0---------|

e|---------------------------------------------------|
B|---------------------------------------------------|
G|-----------0-----------0-----------0-----0---------|
D|---2---0h2-----2---0h2-----2---0h2-----5-------7---|
A|---------------------------------------------0-----|
E|-0---0-------0---0-------0---0-------3-----5-------|

e|---------------------------------------------------|
B|---------------------------------------------------|
G|-----------0-----------0-----------0-----------0---|
D|---2---0h2-----2---0h2-----2---0h2-----2---0h2-----|
A|---------------------------------------------------|
E|-0---0-------0---0-------0---0-------0---0---------|

e|---------------------------------------------------|
B|---------------------------------------------------|
G|-----------0-----------0-----------0-----0---------|
D|---2---0h2-----2---0h2-----2---0h2-----5-------7---|
A|---------------------------------------------0-----|
E|-0---0-------0---0-------0---0-------3-----5-------|

e|---------------------------------------------------|
B|---------------------------------------------------|
G|-----------0-----------0-----------0-----------0---|
D|---2---0h2-----2---0h2-----2---0h2-----2---0h2-----|
A|---------------------------------------------------|
E|-0---0-------0---0-------0---0-------0---0---------|

e|---------------------------------------------------|
B|---------------------------------------------------|
G|-----------0-----------0-----------0-----0---------|
D|---2---0h2-----2---0h2-----2---0h2-----5-------7---|
A|---------------------------------------------0-----|
E|-0---0-------0---0-------0---0-------3-----5-------|

e|------|
B|------|
G|------|
D|--2---|
A|--2---|
E|--0---|


************************************

| x   Dead note
| h   Hammer-on

************************************

            
            
Suggest correction
Creating personal tab
Creating personal tab
You can edit any tab online and save it as your Personal.

You can edit, replace or remove any tab part or add personal notes – all changes will be seen only by you.

Personal tabs can be accessed anytime from any device, even offline.
Learn more »
Give kudos to tab author, rate the tab!
1 2 3 4 5
comments
print report bad tab
guest
You may want to rate the tab now too:
select rating
Wanna post a correction for this tab? Suggest correction