Oops, an error
Loading. Please wait.

Hold On tab

142 views 1 this week
no commentswrite comment
1 2 3 4 5
3 more votes to show rating
add to favorites
×
Save as Personal and add changes to this tab that will be seen only by you. Learn more ›
×
You can save this tab as Personal to edit and correct it or add notes. All changes will be seen only by you. Learn more »
launch autoscroll
font size
0
reset
how to read this tab
guitar tuner
edit
Autoscroll
slow
fast
+/-
esc
set tempo
stop
Author
Difficulty
Intro:

e | ----------------|----------------|----------------|---------------- |
B | ----------------|----------------|----------------|---------------- |
G | --4---4---4---4-|--2---2---2---2-|--5---5---5---5-|--4---4---4---4- |
D | ----------------|----------------|----------------|---------------- |
A | ----------------|----------------|----------------|---------------- |
E | ----------------|----------------|----------------|---------------- |

e | ----------------|----------------|----------------|---------------- |
B | ----------------|----------------|----------------|---------------- |
G | --4---4---4---4-|--2---2---2---2-|--5---5---5---5-|--4---4---4---4- |
D | --5---5---5---5-|--2---2---2---2-|--5---5---5---5-|--5---5---5---5- |
A | ----------------|----------------|----------------|---------------- |
E | ----------------|----------------|----------------|---------------- |

e | ----------------|----------------|----------------|---------------- |
B | ----------------|----------------|----------------|---------------- |
G | --4---4---4---4-|--2---2---2---2-|--5---5---5---5-|--4---4---4---4- |
D | --5---5---5---5-|--2---2---2---2-|--5---5---5---5-|--5---5---5---5- |
A | --5---5---5---5-|--3---3---3---3-|--7---7---7---7-|--5---5---5---5- |
E | ----------------|----------------|----------------|---------------- |

Body:

e | ----------------|----------------|----------------|---------------- |
B | ----------------|----------------|----------------|---------------- |
G | --4---4---4---4-|--2---2---2---2-|--5---5---5---5-|--4---4---4---4- |
D | --5---5---5---5-|--2---2---2---2-|--5---5---5---5-|--5---5---5---5- |
A | --5---5---5---5-|--3---3---3---3-|--7---7---7---7-|--5---5---5---5- |
E | ----------------|----------------|----------------|---------------- |  x4

e | ----------------|----------------|----------------|---------------- |
B | ----------------|----------------|----------------|---------------- |
G | -444-444-444-444|-222-222-222-222|-555-555-555-555|-444-444-444-444 |
D | -555-555-555-555|-222-222-222-222|-555-555-555-555|-555-555-555-555 |
A | -555-555-555-555|-333-333-333-333|-777-777-777-777|-555-555-555-555 |
E | ----------------|----------------|----------------|---------------- |  x4

e | ----------------|----------------|----------------|---------------- |
B | ----------------|----------------|----------------|---------------- |
G | --4---4---4---4-|--2---2---2---2-|--5---5---5---5-|--4---4---4---4- |
D | --5---5---5---5-|--2---2---2---2-|--5---5---5---5-|--5---5---5---5- |
A | --5---5---5---5-|--3---3---3---3-|--7---7---7---7-|--5---5---5---5- |
E | ----------------|----------------|----------------|---------------- |  x4

Lyrics:

Now that we've started
It's sad to see it end
But I'll try to make it
As long as it's all right for me to pretend

And I'll hold on
I'll hold on for you
For you
And I'll hold on
And I'll hold on for you
For you

I will still love you
As long as you stay in this bed
Cause we've hit the trigger
There's nothing left to do but wait for the end

Walls will be crumbling
Walls will be crumbling outside
Outside
So let's stay forever
Let's stay forever inside
Inside

And I'll hold on
And I'll hold on for you
For you
And I'll hold on
And I'll hold on for you
For you

And I'll hold on (Please let me stay)
And I'll hold on for you (let me stay)
For you (let me stay)
And I'll hold on (Please let me stay)
And I'll hold on for you (let me stay)
For you (let me stay)

            
            
Suggest correction
Creating personal tab
Creating personal tab
You can edit any tab online and save it as your Personal.

You can edit, replace or remove any tab part or add personal notes – all changes will be seen only by you.

Personal tabs can be accessed anytime from any device, even offline.
Learn more »
Give kudos to tab author, rate the tab!
1 2 3 4 5
comments
print report bad tab
guest
You may want to rate the tab now too:
select rating
Wanna post a correction for this tab? Suggest correction