Oops, an error
Loading. Please wait.

Holly Wood Died tab

version 1
version 1

Whole song

Interactive

4,037 views 1 this week
5 commentsread comments
1 2 3 4 5
x 4
add to favorites
×
Save as Personal and add changes to this tab that will be seen only by you. Learn more ›
×
You can save this tab as Personal to edit and correct it or add notes. All changes will be seen only by you. Learn more »
launch autoscroll
font size
0
reset
how to read this tab
guitar tuner
edit
Autoscroll
slow
fast
+/-
esc
set tempo
stop
Author
Song: Holly Wood Died
Band: Yellowcard
Album: Lights And Sounds

GTR1:

Drop D

Verse 1: all x 2    (. means palm-muted)

e|----------------------------------------------------------------|
B|----------------------------------------------------------------|
G|----------------------------------------------------------------|
D|----------------------------------------------------------------|
A|----------------------------------------------------------------|
E|-11-11-11-11-11-11-11-11-11-11-11-2-2-2-2-2-2-2-2-2-2-2-2-2-2-2-|
    .  .  .  .  .  .  .  .  .  .  . . . . . . . . . . . . . . . .
e|-----------------------------------------------------------------|
B|-----------------------------------------------------------------|
G|-----------------------------------------------------------------|
D|-----------------------------------------------------------------|
A|-----------------------------------------------------------------|
E|-4-4-4-4-4-4-4-4-6-6-6-6-6-6-6-6-7-7-7-7-7-7-7-7-7-7-7-7-7-7-7-7-|
   . . . . . . . . . . . . . . . . . . . . . . . . . . . . . . . .

Break: 
e|-----------------------------------------------------------------|
B|-----------------------------------------------------------------|
G|-----------------------------------------------------------------|
D|-----------------------------------------------------------------|
A|-----------------------------------------------------------------|
E|-4-4-4-4-4-4-4-4-6-6-6-6-6-6-6-6-7-7-7-7-7-7-7-7-7-7-7-7-7-7-7-7-|
   . . . . . . . . . . . . . . . . . . . . . . . . .


Verse 2: repeat verse 1&break (palm mute also the last part of the break)

Chorus: all x2

e|-------------------------------------------|
B|-------------------------------------------|
G|-666666666666666666666---------------------|
D|-666666666666666666666-7777777777777777777-|
A|-444444444444444444444-7777777777777777777-|
E|-----------------------7777777777777777777-|

e|--------------------------------------------|
B|--------------------------------------------|
G|--------------------------------------------|
D|-999999999999999999999-77777777777777777777-|
A|-999999999999999999999-77777777777777777777-|
E|-999999999999999999999-77777777777777777777-|

Verse 3: same as verse 2

Chorus 2: same as previous chorus

Solo:
e|---------------------------------------------|
B|---------------------------------------------|
G|-6666666666----------------------------------|
D|-6666666666-9999999999-7777777777-2----------|
A|-4444444444-9999999999-7777777777-2-let ring-|
E|------------9999999999-7777777777-2----------|

e|-----------------------------------------|
B|-----------------------------------------|
G|-6666666666------------------------------|
D|-6666666666-9999999999-7777777777-10--12-|
A|-4444444444-9999999999-7777777777-10--12-|
E|------------9999999999-7777777777-10--12-|

Final Chorus: starts after the gtr2 break
 don't play the first C#5 then same as before,repeat till outro

Outro: end on E5(let ring) then play these chords

E5 
 
B5 F#5 E5  

B5 F#5 A5

B5 F#5

C#5 B5 A5

C#5 B5 A5

F#5 B5 F#5 A5

B5 F#5 A5 (after this, only violin)

___________________________________________________________________________
GTR2

Standard tuning

Comes in @ verse 2

e|---------------|---------------------------|
B|---------------|----0----0----0------------|
G|---------------|----4----4----4--and so on-|
D|---------------|---------------------------|
A|-0-0-0-0-0-0-0-|-0-0--0-0--0-0-------------|
E|---------------|---------------------------|

Chorus 1: same as gtr 1

Verse 3: repeat verse 2

Chorus 2: same as before

SORRY NO SOLO!! could someone tab it pliz?

Break (before final chorus):

e|--------|
B|--------|
G|-99~-99-|
D|-99~-99-|
A|-77~-77-|
E|--------|

Final Chorus: same as gtr 1

Outro:

e|--------------------------------------------------| repeat & fade out
B|-9---9---9---9-10-7---7---7---7-9-5---5---5---5-7-|
G|---9---9---9--------9---9---9-------6---6---6-----|
D|--------------------------------------------------|
A|--------------------------------------------------|
E|--------------------------------------------------|

sorry if there's no solo, i'm working hard on it
hope i can tab it out!
enjoy the rest of this great song

            
            
Suggest correction
Creating personal tab
Creating personal tab
You can edit any tab online and save it as your Personal.

You can edit, replace or remove any tab part or add personal notes – all changes will be seen only by you.

Personal tabs can be accessed anytime from any device, even offline.
Learn more »
comments
print report bad tab
5 comments total. Showing first comments.
0 reply
g14classified 80 Feb 05, 2006 09:01 AM

Wow looky here, NO SOLO

0 reply
Shiruzu 1,537 Feb 06, 2006 01:31 AM

is it a five * the rating you see for this tab? NO, it's a 4 * rated tab becuse there is NO SOLO and i'm not pretending 5 stars LIKE YOU DO
so shut up stupid bitch

0 reply
Imnotrichey 133 Feb 10, 2006 12:37 PM

i hate tabs that are wrong right away..makes me not wanna read the rest of it

so yah..fix the verse...its a A, not an E the first and third time...then he does an E the second and fourth time...like on the other tab

guest
You may want to rate the tab now too:
select rating
Wanna post a correction for this tab? Suggest correction