Oops, an error
Loading. Please wait.

Make Me So tab

version 1
version 1

Whole song

Interactive

1,463 views 1 this week
no commentswrite comment
1 2 3 4 5
x 5
add to favorites
×
Save as Personal and add changes to this tab that will be seen only by you. Learn more ›
×
You can save this tab as Personal to edit and correct it or add notes. All changes will be seen only by you. Learn more »
launch autoscroll
font size
0
reset
how to read this tab
guitar tuner
edit
Autoscroll
slow
fast
+/-
esc
set tempo
stop
-------------------------------------------------------------------------------
                             MAKE ME SO - Yellowcard
-------------------------------------------------------------------------------
Tabbed by:Arin91
Ive been looking everywhere to find tabs for this song but there are none! there is chords but it
doesnt help much. I watched the only live video to figure out how to play the solo.
figuring out the chorus wasnt so hard this is my first ever tab and it sounds right to me.

Tuning:Drop C

Intro/chours
d|---------------------------------------------------------------------------|
A|---------------------------------------------------------------------------|
F|--11----9----11---14----12----11---9----7----11----12-11-9-----------------|
C|--x-----x----x----x-----x-----x----x----x----x-----x--x--x-----------------|
G|--9-x2--7-x2-9-x2-12-x2-10-x2-9-x2-7-x2-5-x2-9-x11-10-9--7-x3--------------|
C|---------------------------------------------------------------------------|
repeat 2 times for intro and first chorus, 4 times for second chorus

Solo
d|---------------------------------------------------------------------------|
A|---------------------------------------------------------------------------|
F|----------------------------------------------------------0----------------|
C|----------------------------0-------------------------0-4------------------|
G|----9---9-7-----5-------0-4-------9---9-7-----5----------------------------|
C|0-0---0-----0-4---0-2-4-------0-0---0-----0-4---0-2-4----------------------|
repeat 4 times

Bridge
     Am                    F 
You dream of some better place
             G                    F
Some better love, or some better name
Am           F                G                   F 
If I ever escape, I'm gonna love and give it a name

Outro
d|---------------------------------------------------------------------------|
A|---------------------------------------------------------------------------|
F|-----------7---------------------------------------------------------------|
C|-9----5----7---------------------------------------------------------------|
G|-9----5----5-x16-----------------------------------------------------------|
C|-9-x8-5-x8-----------------------------------------------------------------|
repeat two times

alternate outro, sounds more correct in my opinion
d|---------------------------------------------------------------------------|
A|---------------------------------------------------------------------------|
F|---------------------------------------------------------------------------|
C|-9----5----0---------------------------------------------------------------|
G|-9----5----0---------------------------------------------------------------|
C|-9-x8-5-x8-0-x16-----------------------------------------------------------|
repeat two times

intro x2
verse (there is no guitar in the verse but if you wana play along watch the progression goes Am F G F x4)
chorus x2
verse (there is no guitar in the verse but if you wana play along watch the progression goes Am F G F x4)
chorus x4
solo x4
bridge 
chorus x4
outro x2


************************************

| /   slide up
| \   slide down
| h   hammer-on
| p   pull-off
| ~   vibrato
| +   harmonic
| x   Mute note
| b   Bend
| pb  Pre-bend
| br  Bend release
| pbr Pre-bend release
| brb Bend release bend

************************************

            
            
Suggest correction
Creating personal tab
Creating personal tab
You can edit any tab online and save it as your Personal.

You can edit, replace or remove any tab part or add personal notes – all changes will be seen only by you.

Personal tabs can be accessed anytime from any device, even offline.
Learn more »
comments
print report bad tab
guest
You may want to rate the tab now too:
select rating
Wanna post a correction for this tab? Suggest correction