Oops, an error
Loading. Please wait.

My Mountain tab

version 1
version 1

Whole song

Interactive

103 views 1 this week
no commentswrite comment
1 2 3 4 5
x 3
add to favorites
×
Save as Personal and add changes to this tab that will be seen only by you. Learn more ›
×
You can save this tab as Personal to edit and correct it or add notes. All changes will be seen only by you. Learn more »
launch autoscroll
font size
0
reset
how to read this tab
guitar tuner
edit
Autoscroll
slow
fast
+/-
esc
set tempo
stop
"My Mountain" by Yellowcard 

Tuning: DADGAD

Look for my Guitar Pro tab


[Intro] Guitar 1

d|--------------------------------------|
A|--------------------------------------|
G|--6~---7~--9~----6~---7~--11~---------| 
D|--x----x---x-----x----x----x----------|
A|--4~---5~--7~----4~---5~---9~---------|
D|--0~---0~--0~----0~---0~---0~---------|

  

[Verse] "I'm on my mountain..."

d|--------------------------------------|
A|--------------------------------------|
G|--6~---7~--9~----6~---7~--11~---------|
D|--x----x---x-----x----x----x----------|    Guitar 1 plays the Intro riff through verse
A|--4~---5~--7~----4~---5~---9~---------|
D|--0~---0~--0~----0~---0~---0~---------|

[Pre-Chorus]

d|------|
A|------|
G|--12--|  
D|---x--|  
A|--10--|
D|------|

Guitar 2

d|--0~~~~----|
A|--0~~~~----|
G|--7~~~~----|
D|--7~~~~----|
A|--5~~~~----|
D|--5~~~~----|


[Chorus] "I can't come back..." | "And if you need me..."

Guitar 1

d|------------------------------|-----------------------------|
A|--------------13--------------|--------------13----12-------|
G|--14----14-----x----12--------|--14----14-----x-----x-------|
D|---x-----x----10-----x--------|---x-----x----10-----9-------|
A|--12----12----------10--------|--12----12-------------------|
D|------------------------------|-----------------------------|

Guitar 2

d|---0-----0--------------------|---0-----0----------0--------|
A|---0-----0--------------------|---0-----0----------0--------|
G|---7-----7----10--------------|---7-----7----10----7--------|
D|---7-----7----10--------------|---7-----7----10----7--------|
A|---5-----0-----8----3---------|---5-----0-----8----5--------|
D|---0-----------8----5---------|---0-----------8----5--------|

Guitar 1 and 2

"Yeahhhh"

d|-------------------------------------|
A|-------------------------------------|
G|-------------------------------------|
D|-------------------------------------|
A|--0-2-2-2-2-2/5-5-5-0-0-0-5-5-5-5----|
D|--0-2-2-2-2-2/5-5-5-0-0-0-5-5-5-5----|
    
[Interlude]

Guitar 1
                    
d|----------------------|
A|----------------------|
G|-----------6---7------|
D|-----------x---x------|
A|--9b10r9~~\4~~-5~~----|
D|--0~~~~~~~~0~~-0~~----|

[Verse] "I found my mountain..."

Guitar 1

d|--------------------------------------|
A|--------------------------------------|
G|--6~---7~--9~----6~---7~--11~---------|
D|--x----x---x-----x----x----x----------|    Guitar 1 plays the Intro riff through entire verse
A|--4~---5~--7~----4~---5~---9~---------|
D|--0~---0~--0~----0~---0~---0~---------|

"When I finally came up close..."

Guitar 2 (Guitar 1 continues to play riff)

d|---------------------------|               
A|---------------------------|
G|---------------------------|
D|---------------------------| Play 2x
A|--9------5------0----------|
D|--9-(x7)-5-(x8)-0-(x16)----|
PM  *      *      *

[Pre-Chorus]

Guitar 1

d|-------|
A|-------|
G|--6----|  
D|--x----|  
A|--4----|
D|-------|

Guitar 2

d|--0~~~~----|
A|--0~~~~----|
G|--7~~~~----|
D|--7~~~~----|
A|--5~~~~----|
D|--5~~~~----|

[Chorus] "I can't come back..." | "And if you need me..."

Guitar 1

d|------------------------------|-----------------------------|
A|--------------13--------------|--------------13----12-------|
G|--14----14-----x----12--------|--14----14-----x-----x-------|
D|---x-----x----10-----x--------|---x-----x----10-----9-------|
A|--12----12----------10--------|--12----12-------------------|
D|------------------------------|-----------------------------|

Guitar 2

d|---0-----0--------------------|---0-----0----------0--------|
A|---0-----0--------------------|---0-----0----------0--------|
G|---7-----7----10--------------|---7-----7----10----7--------|
D|---7-----7----10--------------|---7-----7----10----7--------|
A|---5-----0-----8----3---------|---5-----0-----8----5--------|
D|---0-----------8----5---------|---0-----------8----5--------|

Guitar 1 and 2

"Yeahhhh"

d|-------------------------------------|
A|-------------------------------------|
G|-------------------------------------|
D|-------------------------------------|
A|--0-2-2-2-2-2/5-5-5-0-0-0-5-5-5-5----|
D|--0-2-2-2-2-2/5-5-5-0-0-0-5-5-5-5----|

[Bridge]

Guitar 3 (Clean) Palm muted throughout

d|---------------------------------------------------------------------|
A|------------------4-4-4-4-4-4-4-4-5-5-5-5-5-5-5-5--------------------|
G|--4-4-4-4-4-4-4-4-4-4-4-4-4-4-4-4-4-4-4-4-4-4-4-4--------------------|
D|--4-4-4-4-4-4-4-4-4-4-4-4-4-4-4-4-5-5-5-5-5-5-5-5-4-4-4-4-4-4-4-4----| Play 4xs. The last 2xs are not PMed.
A|--------------------------------------------------0-0-0-0-0-0-0-0----|
D|--------------------------------------------------0-0-0-0-0-0-0-0----|
Palm mute throughout.

Guitar 1

d|-------|
A|-------|
G|--7----| 
D|--x----| Tremolo pick for 8 measures
A|--5----|
D|-------|

Guitar 2

d|--------|--------|--------|-----------|
A|--------|--------|--------|-----------|
G|--11----|--11----|--14----|--9----11--|
D|---x----|---x----|---x----|--x-----x--| Tremolo after guitar 1 plays first 4 measures 
A|---9----|---9----|--12----|--7-----9--|
D|--------|--------|--------|-----------|

[Interlude]

Guitar 1
                    
e|----------------------|
B|----------------------|
G|-----------6---7------|
D|-----------x---x------|
A|--9b10r9~~\4~~-5~~----|
D|--0~~~~~~~~0~~-0~~----|

[Chorus] "I can't come back..."  | "And if you need me..."

Guitar 1

e|------------------------------|-----------------------------|
B|--------------13--------------|--------------13----12-------|
G|--14----14-----x----12--------|--14----14-----x-----x-------|
D|---x-----x----10-----x--------|---x-----x----10-----9-------|
A|--12----12----------10--------|--12----12-------------------|
D|------------------------------|-----------------------------|

Guitar 2

e|---0-----0--------------------|---0-----0-------------------|
B|---0-----0--------------------|---0-----0-------------------|
G|---7-----7----10--------------|---7-----7----10-------------|
D|---7-----7----10--------------|---7-----7----10-------------|
A|---5-----0-----8----3---------|---5-----0-----8----3--------|
D|---0-----------8----5---------|---0-----------8----5--------|

[Chorus] "I'm on my mountain..."  | "I'm there with her..."

Guitar 1

e|------------------------------|-----------------------------|
B|--------------13--------------|--------------13----12-------|
G|--14----14-----x----12--------|--14----14-----x-----x-------|
D|---x-----x----10-----x--------|---x-----x----10-----9-------|
A|--12----12----------10--------|--12----12-------------------|
D|------------------------------|-----------------------------|

Guitar 2

e|---0-----0--------------------|---0-----0----------0--------|
B|---0-----0--------------------|---0-----0----------0--------|
G|---7-----7----10--------------|---7-----7----10----7--------|
D|---7-----7----10--------------|---7-----7----10----7--------|
A|---5-----0-----8----3---------|---5-----0-----8----5--------|
D|---0-----------8----5---------|---0-----------8----5--------|

Guitar 1 and 2

"Yeahhhh"

e|-------------------------------------|
B|-------------------------------------|
G|-------------------------------------|
D|-------------------------------------|
A|--0-2-2-2-2-2/5-5-5-0-0-0-5-5-5-5----|
D|--0-2-2-2-2-2/5-5-5-0-0-0-5-5-5-5----|

[Outro]

Guitar 1
                    
e|----------------------|
B|----------------------|
G|-----------6---7------|
D|-----------x---x------| x2
A|--9b10r9~~\4~~-5~~----|
D|--0~~~~~~~~0~~-0~~----|

Guitar 2

e|--0----|
B|--0----|
G|--2----|
D|--0----| x2
A|--0----|
D|--0----|


************************************

| ~   Vibrato
| x   Dead note
| /   Slide up
| r   Release
| b   Bend
| PM  Palm mute

************************************

            
            
Suggest correction
Creating personal tab
Creating personal tab
You can edit any tab online and save it as your Personal.

You can edit, replace or remove any tab part or add personal notes – all changes will be seen only by you.

Personal tabs can be accessed anytime from any device, even offline.
Learn more »
Give kudos to tab author, rate the tab!
1 2 3 4 5
comments
print report bad tab
guest
You may want to rate the tab now too:
select rating
Wanna post a correction for this tab? Suggest correction