Oops, an error
Loading. Please wait.
We have an official Only One tab made by UG professional guitarists. Check out the tab »
×
2,153 views 1 this week
no commentswrite comment
1 2 3 4 5
2 more votes to show rating
add to favorites
×
Save as Personal and add changes to this tab that will be seen only by you. Learn more ›
×
You can save this tab as Personal to edit and correct it or add notes. All changes will be seen only by you. Learn more »
launch autoscroll
font size
0
reset
how to read this tab
guitar tuner
edit
Autoscroll
slow
fast
+/-
esc
set tempo
stop
-----------------------
 Only One ~ Yellowcard
-----------------------
Album: Ocean Avenue

Tabbed By: RussCool
(I know, pretty lame name)

Tuning:
GUITAR 1- (DADGBE)
GUITAR 2- (DADGBE)
Violin-   (EADGBE) 

Timing: 4/4

Tempo: Moderately Slow (Quarter Note)= 84

Key: E

Dynamic: mf

Every " - " Equals a 16th Note



INTRO:

  Guitar 1   (Let Ring)   (Each Note Has A Volume Swell Effect)
E|-----0-----0-----0-----0-----0--------|-------0-----0-----0-----0-----0------|
B|-------0-----0-----0-----0-----0------|-----0-----0-----0-----0-----0--------|
G|---1-----1-----1-----1-----1-----1----|---2-----2-----2-----2-----2-----2----|
D|--------------------------------------|--------------------------------------|
A|--------------------------------------|--------------------------------------|
D|--------------------------------------|--------------------------------------|

E|-------0-----0---------0-----0--------|-------4-----4-----2-----0-----2------|
B|-----0-----0-----0---0-----0-----0----|-----0-----0-----0-----0-----0--------|
G|---4-----4-----4---6-----6-----6------|---2-----2-----2-----2-----2-----2----|
D|--------------------------------------|--------------------------------------|
A|--------------------------------------|--------------------------------------|
D|--------------------------------------|--------------------------------------|


  Guitar 2   (Let Ring)   (Each Note Has A Volume Swell Effect)
E|-----4-----4-----4-----4-----4--------|-------7-----7-----7-----7-----7------|
B|-------5-----5-----5-----5-----5------|-----0-----0-----0-----0-----0--------|
G|---4-----4-----4-----4-----4-----4----|--------------------------------------|
D|--------------------------------------|---7-----7-----7-----7-----7-----7----|
A|--------------------------------------|--------------------------------------|
D|--------------------------------------|--------------------------------------|

E|-------0-----0---------0-----0--------|-------7-----7-----5-----4-----5------|
B|-----0-----0-----0---0-----0-----0----|-----0-----0-----0-----0-----0--------|
G|---8-----8-----8---9-----9-----9------|--------------------------------------|
D|--------------------------------------|---7-----7-----7-----7-----7-----7----|
A|--------------------------------------|--------------------------------------|
D|--------------------------------------|--------------------------------------|


  Violin
E|--------------------------------------|--------------------------------------|
B|--------------------------------------|--------------------------------------|
G|--------------------------------------|--------------------------------------|
D|--------------------------------------|--------------------------------------|
A|--------------------------------------|--------------------------------------|
E|--------------------------------------|--------------------------------------|

E|--------------------------------------|--------------------------------------|
B|--------------------------------------|--------------------------------------|
G|--------------------------------------|--------------------------------------|
D|--------------------------------------|--------------------------------------|
A|--------------------------------------|--------------------------------------|
E|--------------------------------------|--------------------------------------|




VERSE:

  Guitar 1   (Let Ring)   (Each Note Has A Volume Swell Effect)
E|---/4-------------------|---/4-------------------|
B|---\5-------------------|---\5-------------------|
G|---/4-------------------|---/4-------------------|
D|---\6-------------------|---\7-------------------|
A|------------------------|------------------------|
D|------------------------|------------------------|

E|---\0--------\0-----------|---------------------------------------------------|
B|---/4--------/5-----------|---12-12-12-12-12-12-12-12-11-11-11-9-9-9-11-11----|
G|---\4--------\6-----------|---13-13-13-13-13-13-13-13-10-10-10-9-9-9-10-10----|
D|--------------------------|---------------------------------------------------|
A|--------------------------|---------------------------------------------------|
D|--------------------------|---------------------------------------------------|


  Guitar 2   (Let Ring)   (Each Note Has A Volume Swell Effect)
E|-----4-----4-----4-----4-----4--------|-------7-----7-----7-----7-----7------|
B|-------5-----5-----5-----5-----5------|-----0-----0-----0-----0-----0--------|
G|---4-----4-----4-----4-----4-----4----|--------------------------------------|
D|--------------------------------------|---7-----7-----7-----7-----7-----7----|
A|--------------------------------------|--------------------------------------|
D|--------------------------------------|--------------------------------------|

E|-------0-----0---------0-----0--------|-------7-----7-----5-----4-----5------|
B|-----0-----0-----0---0-----0-----0----|-----0-----0-----0-----0-----0--------|
G|---8-----8-----8---9-----9-----9------|--------------------------------------|
D|--------------------------------------|---7-----7-----7-----7-----7-----7----|
A|--------------------------------------|--------------------------------------|
D|--------------------------------------|--------------------------------------|


  Violin
E|------------------------|------------------------|
B|---\0-------------------|---/0-------------------|
G|---/1-------------------|---\2-------------------|
D|---\2-------------------|---/2-------------------|
A|---/2-------------------|---\0-------------------|
E|---\0-------------------|------------------------|

E|--------------------------|------------------------|
B|---/4--------/5-----------|---/0-------------------|
G|---\4--------\6-----------|---\2-------------------|
D|---/4--------/6-----------|---/2-------------------|
A|---\2--------\4-----------|---\0-------------------|
E|--------------------------|------------------------|


  Guitar 1   (Let Ring)   (Each Note Has A Volume Swell Effect)
E|---/4-------------------|---/4-------------------|
B|---\5-------------------|---\5-------------------|
G|---/4-------------------|---/4-------------------|
D|---\6-------------------|---\7-------------------|
A|------------------------|------------------------|
D|------------------------|------------------------|

E|---\0--------\0-----------|---------------------------------------------------|
B|---/4--------/5-----------|---12-12-12-12-12-12-12-12-11-11-11-9-9-9-11-11----|
G|---\4--------\6-----------|---13-13-13-13-13-13-13-13-10-10-10-9-9-9-10-10----|
D|--------------------------|---------------------------------------------------|
A|--------------------------|---------------------------------------------------|
D|--------------------------|---------------------------------------------------|


  Guitar 2   (Let Ring)   (Each Note Has A Volume Swell Effect)
E|-----4-----4-----4-----4-----4--------|-------7-----7-----7-----7-----7------|
B|-------5-----5-----5-----5-----5------|-----0-----0-----0-----0-----0--------|
G|---4-----4-----4-----4-----4-----4----|--------------------------------------|
D|--------------------------------------|---7-----7-----7-----7-----7-----7----|
A|--------------------------------------|--------------------------------------|
D|--------------------------------------|--------------------------------------|

E|-------0-----0---------0-----0--------|-------7-----7-----5-----4-----5------|
B|-----0-----0-----0---0-----0-----0----|-----0-----0-----0-----0-----0--------|
G|---8-----8-----8---9-----9-----9------|--------------------------------------|
D|--------------------------------------|---7-----7-----7-----7-----7-----7----|
A|--------------------------------------|--------------------------------------|
D|--------------------------------------|--------------------------------------|


  Violin
E|------------------------|------------------------|
B|---\0-------------------|---/0-------------------|
G|---/1-------------------|---\2-------------------|
D|---\2-------------------|---/2-------------------|
A|---/2-------------------|---\0-------------------|
E|---\0-------------------|------------------------|

E|--------------------------|------------------------|
B|---/4--------/5-----------|---/0-------------------|
G|---\4--------\6-----------|---\2-------------------|
D|---/4--------/6-----------|---/2-------------------|
A|---\2--------\4-----------|---\0-------------------|
E|--------------------------|------------------------|




PRE-CHORUS

  Guitar 1
E|--------------------------------------|--------------------------------------|
B|--------------------------------------|--------------------------------------|
G|---4-4-X-4-4-X-4-4-X-4-4-X-4-4-4-4----|---6-6-X-6-6-X-6-6-X-6-6-X-6-6-6-6----|
D|---4-4-X-4-4-X-4-4-X-4-4-X-4-4-4-4----|---6-6-X-6-6-X-6-6-X-6-6-X-6-6-6-6----|
A|---2-2-X-2-2-X-2-2-X-2-2-X-2-2-2-2----|---4-4-X-4-4-X-4-4-X-4-4-X-4-4-4-4----|
D|--------------------------------------|--------------------------------------|

E|--------------------------------------|---------------------------------|
B|--------------------------------------|---------------------------------|
G|--------------------------------------|---4-4-4-4-4-4-4-4-4-------------|
D|---2-2-X-2-2-X-2-2-X-2-2-X-2-2-2-2----|---4-4-4-4-4-4-4-4-4-------------|
A|---2-2-X-2-2-X-2-2-X-2-2-X-2-2-2-2----|---2-2-2-2-2-2-2-2-2-------------|
D|---2-2-X-2-2-X-2-2-X-2-2-X-2-2-2-2----|---------------------------------|


  Guitar 2   (Let Ring)   (Each Note Has A Volume Swell Effect)
E|-------0-----0-----0-----0------|-------0-----0-----0-----0------|
B|-----0-----0-----0-----0--------|-----0-----0-----0-----0--------|
G|---8-----8-----8-----8-----8----|---9-----9-----9-----9-----9----|
D|--------------------------------|--------------------------------|
A|--------------------------------|--------------------------------|
D|--------------------------------|--------------------------------|

E|-----4-----4-----4-----4--------|-------0-----0-----0--------------|
B|-------5-----5-----5-----5------|-----0-----0-----0----------------|
G|---4-----4-----4-----4-----4----|---8-----8-----8-----8------------|
D|--------------------------------|----------------------------------|
A|--------------------------------|----------------------------------|
D|--------------------------------|----------------------------------|


  Violin
E|------------------------|------------------------|
B|---16-------------------|---17-------------------|
G|------------------------|------------------------|
D|------------------------|------------------------|
A|------------------------|------------------------|
E|------------------------|------------------------|

E|------------------------|--------------------------|
B|---12-------------------|---16---------------------|
G|------------------------|-------------16-----------|
D|------------------------|--------------------------|
A|------------------------|--------------------------|
E|------------------------|--------------------------|




CHORUS

  Guitar 1
E|--------------------------------------|--------------------------------------|
B|--------------------------------------|--------------------------------------|
G|---6-6-6-6-6-6-6-6-6-6-6-6-6-6-6-6----|---2-2-2-2-2-2-2-2-2-2-2-2-2-2-2-2----|
D|---6-6-6-6-6-6-6-6-6-6-6-6-6-6-6-6----|---2-2-2-2-2-2-2-2-2-2-2-2-2-2-2-2----|
A|---4-4-4-4-4-4-4-4-4-4-4-4-4-4-4-4----|---0-0-0-0-0-0-0-0-0-0-0-0-0-0-0-0----|
D|--------------------------------------|--------------------------------------|

E|--------------------------------------|--------------------------------------|
B|--------------------------------------|--------------------------------------|
G|--------------------------------------|---4-4-4-4-4-4-4-4-5-5-5-5-5-5-5-5----|
D|---2-2-2-2-2-2-2-2-2-2-2-2-2-2-2-2----|---4-4-4-4-4-4-4-4-5-5-5-5-5-5-5-5----|
A|---2-2-2-2-2-2-2-2-2-2-2-2-2-2-2-2----|---2-2-2-2-2-2-2-2-3-3-3-3-3-3-3-3----|
D|---2-2-2-2-2-2-2-2-2-2-2-2-2-2-2-2----|--------------------------------------|


  Guitar 2
E|--------------------------------------|--------------------------------------|
B|--------------------------------------|--------------------------------------|
G|---6-6-6-6-6-6-6-6-6-6-6-6-6-6-X-X----|---2-2-2-2-2-2-2-2-2-2-2-2-2-2-X-X----|
D|---6-6-6-6-6-6-6-6-6-6-6-6-6-6-X-X----|---2-2-2-2-2-2-2-2-2-2-2-2-2-2-X-X----|
A|---4-4-4-4-4-4-4-4-4-4-4-4-4-4-X-X----|---0-0-0-0-0-0-0-0-0-0-0-0-0-0-X-X----|
D|--------------------------------------|--------------------------------------|

E|--------------------------------------|--------------------------------------|
B|--------------------------------------|--------------------------------------|
G|--------------------------------------|---4-4-4-4-4-4-X-X-5-5-5-5-5-5-X-X----|
D|---2-2-2-2-2-2-2-2-2-2-2-2-2-2-X-X----|---4-4-4-4-4-4-X-X-5-5-5-5-5-5-X-X----|
A|---2-2-2-2-2-2-2-2-2-2-2-2-2-2-X-X----|---2-2-2-2-2-2-X-X-3-3-3-3-3-3-X-X----|
D|---2-2-2-2-2-2-2-2-2-2-2-2-2-2-X-X----|--------------------------------------|

  Violin
E|--------------------------------------|--------------------------------------|
B|---17--17--17--17--17--17--17--17-----|---14--14--14--14--14--14--14--14-----|
G|--------------------------------------|--------------------------------------|
D|--------------------------------------|--------------------------------------|
A|--------------------------------------|--------------------------------------|
E|--------------------------------------|--------------------------------------|

E|--------------------------------------|--------------------------|
B|---12--12--12--12--12--12--12--12-----|---16--------17-----------|
G|--------------------------------------|--------------------------|
D|--------------------------------------|--------------------------|
A|--------------------------------------|--------------------------|
E|--------------------------------------|--------------------------|


  Guitar 1
E|--------------------------------------|--------------------------------------|
B|--------------------------------------|--------------------------------------|
G|---6-6-6-6-6-6-6-6-6-6-6-6-6-6-6-6----|---2-2-2-2-2-2-2-2-2-2-2-2-2-2-2-2----|
D|---6-6-6-6-6-6-6-6-6-6-6-6-6-6-6-6----|---2-2-2-2-2-2-2-2-2-2-2-2-2-2-2-2----|
A|---4-4-4-4-4-4-4-4-4-4-4-4-4-4-4-4----|---0-0-0-0-0-0-0-0-0-0-0-0-0-0-0-0----|
D|--------------------------------------|--------------------------------------|

E|--------------------------------------|--------------------------------------|
B|--------------------------------------|--------------------------------------|
G|--------------------------------------|---4-4-4-4-4-4-4-4-5-5-5-5-5-5-5-5----|
D|---2-2-2-2-2-2-2-2-2-2-2-2-2-2-2-2----|---4-4-4-4-4-4-4-4-5-5-5-5-5-5-5-5----|
A|---2-2-2-2-2-2-2-2-2-2-2-2-2-2-2-2----|---2-2-2-2-2-2-2-2-3-3-3-3-3-3-3-3----|
D|---2-2-2-2-2-2-2-2-2-2-2-2-2-2-2-2----|--------------------------------------|


  Guitar 2
E|--------------------------------------|--------------------------------------|
B|--------------------------------------|--------------------------------------|
G|---6-6-6-6-6-6-6-6-6-6-6-6-6-6-X-X----|---2-2-2-2-2-2-2-2-2-2-2-2-2-2-X-X----|
D|---6-6-6-6-6-6-6-6-6-6-6-6-6-6-X-X----|---2-2-2-2-2-2-2-2-2-2-2-2-2-2-X-X----|
A|---4-4-4-4-4-4-4-4-4-4-4-4-4-4-X-X----|---0-0-0-0-0-0-0-0-0-0-0-0-0-0-X-X----|
D|--------------------------------------|--------------------------------------|

E|--------------------------------------|--------------------------------------|
B|--------------------------------------|--------------------------------------|
G|--------------------------------------|---4-4-4-4-4-4-X-X-5-5-5-5-5-5-X-X----|
D|---2-2-2-2-2-2-2-2-2-2-2-2-2-2-X-X----|---4-4-4-4-4-4-X-X-5-5-5-5-5-5-X-X----|
A|---2-2-2-2-2-2-2-2-2-2-2-2-2-2-X-X----|---2-2-2-2-2-2-X-X-3-3-3-3-3-3-X-X----|
D|---2-2-2-2-2-2-2-2-2-2-2-2-2-2-X-X----|--------------------------------------|

  Violin
E|--------------------------------------|--------------------------------------|
B|---17--17--17--17--17--17--17--17-----|---14--14--14--14--14--14--14--14-----|
G|--------------------------------------|--------------------------------------|
D|--------------------------------------|--------------------------------------|
A|--------------------------------------|--------------------------------------|
E|--------------------------------------|--------------------------------------|

E|--------------------------------------|--------------------------|
B|---12--12--12--12--12--12--12--12-----|---16--------17-----------|
G|--------------------------------------|--------------------------|
D|--------------------------------------|--------------------------|
A|--------------------------------------|--------------------------|
E|--------------------------------------|--------------------------|




POST-CHORUS

  Guitar 1   (Let Ring)   (Each Note Has A Volume Swell Effect)
E|-----4-----4-----4-----4-----4--------|-------7-----7-----7-----7-----7------|
B|-------5-----5-----5-----5-----5------|-----0-----0-----0-----0-----0--------|
G|---4-----4-----4-----4-----4-----4----|--------------------------------------|
D|--------------------------------------|---7-----7-----7-----7-----7-----7----|
A|--------------------------------------|--------------------------------------|
D|--------------------------------------|--------------------------------------|

E|-------0-----0---------0-----0--------|-------7-----7-----5-----4-----5------|
B|-----0-----0-----0---0-----0-----0----|-----0-----0-----0-----0-----0--------|
G|---8-----8-----8---9-----9-----9------|--------------------------------------|
D|--------------------------------------|---7-----7-----7-----7-----7-----7----|
A|--------------------------------------|--------------------------------------|
D|--------------------------------------|--------------------------------------|


  Guitar 2   (Let Ring)   (Each Note Has A Volume Swell Effect)
E|------------------------|------------------------|
B|---\0-------------------|---/0-------------------|
G|---/1-------------------|---\2-------------------|
D|---\2-------------------|---/2-------------------|
A|---/2-------------------|---\0-------------------|
D|---\0-------------------|------------------------|

E|--------------------------|------------------------|
B|---/4--------/5-----------|---/0-------------------|
G|---\4--------\6-----------|---\2-------------------|
D|---/4--------/6-----------|---/2-------------------|
A|---\2--------\4-----------|---\0-------------------|
D|--------------------------|------------------------|


  Violin
E|------------------------|------------------------|
B|------------------------|------------------------|
G|------------------------|------------------------|
D|---18-------------------|---19-------------------|
A|------------------------|------------------------|
E|------------------------|------------------------|

                                (Let Ring)   (Each Note Has A Volume Swell Effect)
E|--------------------------|---------------------------------------------------|
B|--------------------------|---12-12-12-12-12-12-12-12-11-11-11-9-9-9-11-11----|
G|---14--------18-----------|---13-13-13-13-13-13-13-13-10-10-10-9-9-9-10-10----|
D|--------------------------|---------------------------------------------------|
A|--------------------------|---------------------------------------------------|
E|--------------------------|---------------------------------------------------|




VERSE
PRE-CHORUS
CHORUS



SOLO

  Violin
E|----------------------------|-----------------------------|----------------------------|
B|----------------------------|---9--9---7------------------|----------------------------|
G|---6--8--10--------6--6-----|--------------6--6-----6-----|---8--10--------6--6--9-----|
D|----------------------------|--------------------6--------|----------------------------|
A|----------------------------|-----------------------------|----------------------------|
E|----------------------------|-----------------------------|----------------------------|

E|--------------------------------|--------------------------------|
B|--------------------------------|---------12--12---10------------|
G|---9--8--8--9--11--13--9--9-----|---9--9----------------9--9-----|
D|--------------------------------|--------------------------------|
A|--------------------------------|--------------------------------|
E|--------------------------------|--------------------------------|

E|---------------------------------|------------------------------------|
B|---------------------9-10-9------|---------9-10-9---------9-10-9------|
G|------9--11--13-------------9----|----------------9--------------9----|
D|---9-----------------------------|---11-------------11----------------|
A|---------------------------------|------------------------------------|
E|---------------------------------|------------------------------------|

E|-----------------------------|
B|-----------------------------|
G|-------9--11--9--8-----------|
D|---11------------------------|
A|-----------------------------|
E|-----------------------------|


  Guitar 1
E|----------------------|----------------------|----------------------|
B|----------------------|----------------------|----------------------|
G|----------------------|----------------------|----------------------|
D|----------------------|----------------------|----------------------|
A|----------------------|----------------------|----------------------|
D|----------------------|----------------------|----------------------|

E|------------------------------|------------------------------|
B|---------5--5--12--12--12-----|---10----12----10---9---9-----|
G|------------------------------|------------------------------|
D|------------------------------|------------------------------|
A|------------------------------|------------------------------|
D|------------------------------|------------------------------|

E|----------------------------|----------------------------------|
B|---------11--13-------------|-------9-10-9---------9-10-9------|
G|------9---------------------|--------------9--------------9----|
D|---9------------------------|----------------11----------------|
A|----------------------------|----------------------------------|
D|----------------------------|----------------------------------|

E|-----------------------------|
B|-----------------------------|
G|-------9--11--9--8-----------|
D|---11------------------------|
A|-----------------------------|
D|-----------------------------|


  Guitar 2
E|--------------------------------------|--------------------------------------|
B|--------------------------------------|--------------------------------------|
G|---6-6-6-6-6-6-6-6-6-6-6-6-6-6-6-6----|---2-2-2-2-2-2-2-2-2-2-2-2-2-2-2-2----|
D|---6-6-6-6-6-6-6-6-6-6-6-6-6-6-6-6----|---2-2-2-2-2-2-2-2-2-2-2-2-2-2-2-2----|
A|---4-4-4-4-4-4-4-4-4-4-4-4-4-4-4-4----|---0-0-0-0-0-0-0-0-0-0-0-0-0-0-0-0----|
D|--------------------------------------|--------------------------------------|

E|--------------------------------------|--------------------------------------|
B|--------------------------------------|--------------------------------------|
G|--------------------------------------|---4-4-4-4-4-4-4-4-5-5-5-5-5-5-5-5----|
D|---2-2-2-2-2-2-2-2-2-2-2-2-2-2-2-2----|---4-4-4-4-4-4-4-4-5-5-5-5-5-5-5-5----|
A|---2-2-2-2-2-2-2-2-2-2-2-2-2-2-2-2----|---2-2-2-2-2-2-2-2-3-3-3-3-3-3-3-3----|
D|---2-2-2-2-2-2-2-2-2-2-2-2-2-2-2-2----|--------------------------------------|

E|--------------------------------------|--------------------------------------|
B|--------------------------------------|--------------------------------------|
G|---6-6-6-6-6-6-6-6-6-6-6-6-6-6-6-6----|---2-2-2-2-2-2-2-2-2-2-2-2-2-2-2-2----|
D|---6-6-6-6-6-6-6-6-6-6-6-6-6-6-6-6----|---2-2-2-2-2-2-2-2-2-2-2-2-2-2-2-2----|
A|---4-4-4-4-4-4-4-4-4-4-4-4-4-4-4-4----|---0-0-0-0-0-0-0-0-0-0-0-0-0-0-0-0----|
D|--------------------------------------|--------------------------------------|

E|--------------------------------------|--------------------------------------|
B|--------------------------------------|--------------------------------------|
G|--------------------------------------|---4-4-4-4-4-4-4-4-5-5-5-5-5-5-5-5----|
D|---2-2-2-2-2-2-2-2-2-2-2-2-2-2-2-2----|---4-4-4-4-4-4-4-4-5-5-5-5-5-5-5-5----|
A|---2-2-2-2-2-2-2-2-2-2-2-2-2-2-2-2----|---2-2-2-2-2-2-2-2-3-3-3-3-3-3-3-3----|
D|---2-2-2-2-2-2-2-2-2-2-2-2-2-2-2-2----|--------------------------------------|



BRIDGE

  Guitar 1   (Let Ring)   (Each Note Has A Volume Swell Effect)
E|------------------------------------------------|
B|------------------------------------------------|
G|---------9-------9----9-------9-------9----9----|
D|---11-11---11-11---11---11-11---11-11---11------|
A|------------------------------------------------|
D|------------------------------------------------|

E|------------------------------------------|----------------------------------------|
B|------------------------------------------|----------------------------------------|
G|---------9------9-----9-----9------9------|------9-----9-----9-----9-----9---------|
D|-----------9------9-----9-----9------9----|--------9-----9-----9-----9-----9-------|
A|---12-12-----12-----12----12----12--------|---11-----11----11----11----11----11----|
D|------------------------------------------|----------------------------------------|

E|-------------------------------------------|
B|-------------------------------------------|
G|-------9-----9---9-------9-------9----9----|
D|---9-9---9-9---9---10-10---10-10---10------|
A|-------------------------------------------|
D|-------------------------------------------|

E|------------------------------------------------|
B|------------------------------------------------|
G|---------9-------9----9-------9-------9----9----|
D|---11-11---11-11---11---11-11---11-11---11------|
A|------------------------------------------------|
D|------------------------------------------------|

E|------------------------------------------|----------------------------------------|
B|------------------------------------------|----------------------------------------|
G|---------9------9-----9-----9------9------|------9-----9-----9-----9-----9---------|
D|-----------9------9-----9-----9------9----|--------9-----9-----9-----9-----9-------|
A|---12-12-----12-----12----12----12--------|---11-----11----11----11----11----11----|
D|------------------------------------------|----------------------------------------|

E|-------------------------------------------|
B|-------------------------------------------|
G|-------9-----9---9-------9-------9----9----|
D|---9-9---9-9---9---10-10---10-10---10------|
A|-------------------------------------------|
D|-------------------------------------------|

  Guitar 2
E|------------------------|------------------------|
B|---/5-------------------|---/0-------------------|
G|---\6-------------------|---\2-------------------|
D|---/6-------------------|---/2-------------------|
A|---\4-------------------|---\0-------------------|
D|------------------------|------------------------|

E|------------------------|--------------------------|
B|---\0-------------------|---/4--------/5-----------|
G|---/1-------------------|---\4--------\5-----------|
D|---\2-------------------|---/4--------/5-----------|
A|---/2-------------------|---\2--------\3-----------|
E|---\0-------------------|--------------------------|

E|------------------------|------------------------|
B|---/5-------------------|---/0-------------------|
G|---\6-------------------|---\2-------------------|
D|---/6-------------------|---/2-------------------|
A|---\4-------------------|---\0-------------------|
D|------------------------|------------------------|

E|------------------------|-----------------------------|
B|---\0-------------------|---/4--------/5----<5>-------|
G|---/1-------------------|---\4--------\5--------------|
D|---\2-------------------|---/4--------/5--------------|
A|---/2-------------------|---\2--------\3--------------|
E|---\0-------------------|-----------------------------|



CHORUS



OUTRO A

  Guitar 1
E|--------------------------------------|--------------------------------------|
B|--------------------------------------|--------------------------------------|
G|---6-6-6-6-6-6-6-6-6-6-6-6-6-6-6-6----|---2-2-2-2-2-2-2-2-2-2-2-2-2-2-2-2----|
D|---6-6-6-6-6-6-6-6-6-6-6-6-6-6-6-6----|---2-2-2-2-2-2-2-2-2-2-2-2-2-2-2-2----|
A|---4-4-4-4-4-4-4-4-4-4-4-4-4-4-4-4----|---0-0-0-0-0-0-0-0-0-0-0-0-0-0-0-0----|
D|--------------------------------------|--------------------------------------|

E|--------------------------------------|--------------------------------------|
B|--------------------------------------|--------------------------------------|
G|--------------------------------------|---4-4-4-4-4-4-4-4-5-5-5-5-5-5-5-5----|
D|---2-2-2-2-2-2-2-2-2-2-2-2-2-2-2-2----|---4-4-4-4-4-4-4-4-5-5-5-5-5-5-5-5----|
A|---2-2-2-2-2-2-2-2-2-2-2-2-2-2-2-2----|---2-2-2-2-2-2-2-2-3-3-3-3-3-3-3-3----|
D|---2-2-2-2-2-2-2-2-2-2-2-2-2-2-2-2----|--------------------------------------|


  Guitar 2
E|--------------------------------------|--------------------------------------|
B|--------------------------------------|--------------------------------------|
G|---6-6-6-6-6-6-6-6-6-6-6-6-6-6-X-X----|---2-2-2-2-2-2-2-2-2-2-2-2-2-2-X-X----|
D|---6-6-6-6-6-6-6-6-6-6-6-6-6-6-X-X----|---2-2-2-2-2-2-2-2-2-2-2-2-2-2-X-X----|
A|---4-4-4-4-4-4-4-4-4-4-4-4-4-4-X-X----|---0-0-0-0-0-0-0-0-0-0-0-0-0-0-X-X----|
D|--------------------------------------|--------------------------------------|

E|--------------------------------------|--------------------------------------|
B|--------------------------------------|--------------------------------------|
G|--------------------------------------|---4-4-4-4-4-4-X-X-5-5-5-5-5-5-X-X----|
D|---2-2-2-2-2-2-2-2-2-2-2-2-2-2-X-X----|---4-4-4-4-4-4-X-X-5-5-5-5-5-5-X-X----|
A|---2-2-2-2-2-2-2-2-2-2-2-2-2-2-X-X----|---2-2-2-2-2-2-X-X-3-3-3-3-3-3-X-X----|
D|---2-2-2-2-2-2-2-2-2-2-2-2-2-2-X-X----|--------------------------------------|

  Violin
E|--------------------------------------|--------------------------------------|
B|---17--17--17--17--17--17--17--17-----|---14--14--14--14--14--14--14--14-----|
G|--------------------------------------|--------------------------------------|
D|--------------------------------------|--------------------------------------|
A|--------------------------------------|--------------------------------------|
E|--------------------------------------|--------------------------------------|

E|--------------------------------------|--------------------------|
B|---12--12--12--12--12--12--12--12-----|---16--------17-----------|
G|--------------------------------------|--------------------------|
D|--------------------------------------|--------------------------|
A|--------------------------------------|--------------------------|
E|--------------------------------------|--------------------------|


  Guitar 1
E|--------------------------------------|--------------------------------------|
B|--------------------------------------|--------------------------------------|
G|---6-6-6-6-6-6-6-6-6-6-6-6-6-6-6-6----|---2-2-2-2-2-2-2-2-2-2-2-2-2-2-2-2----|
D|---6-6-6-6-6-6-6-6-6-6-6-6-6-6-6-6----|---2-2-2-2-2-2-2-2-2-2-2-2-2-2-2-2----|
A|---4-4-4-4-4-4-4-4-4-4-4-4-4-4-4-4----|---0-0-0-0-0-0-0-0-0-0-0-0-0-0-0-0----|
D|--------------------------------------|--------------------------------------|

E|--------------------------------------|--------------------------------------|
B|--------------------------------------|--------------------------------------|
G|--------------------------------------|---4-4-4-4-4-4-4-4-5-5-5-5-5-5-5-5----|
D|---2-2-2-2-2-2-2-2-2-2-2-2-2-2-2-2----|---4-4-4-4-4-4-4-4-5-5-5-5-5-5-5-5----|
A|---2-2-2-2-2-2-2-2-2-2-2-2-2-2-2-2----|---2-2-2-2-2-2-2-2-3-3-3-3-3-3-3-3----|
D|---2-2-2-2-2-2-2-2-2-2-2-2-2-2-2-2----|--------------------------------------|


  Guitar 2
E|--------------------------------------|--------------------------------------|
B|--------------------------------------|--------------------------------------|
G|---6-6-6-6-6-6-6-6-6-6-6-6-6-6-X-X----|---2-2-2-2-2-2-2-2-2-2-2-2-2-2-X-X----|
D|---6-6-6-6-6-6-6-6-6-6-6-6-6-6-X-X----|---2-2-2-2-2-2-2-2-2-2-2-2-2-2-X-X----|
A|---4-4-4-4-4-4-4-4-4-4-4-4-4-4-X-X----|---0-0-0-0-0-0-0-0-0-0-0-0-0-0-X-X----|
D|--------------------------------------|--------------------------------------|

E|--------------------------------------|--------------------------------------|
B|--------------------------------------|--------------------------------------|
G|--------------------------------------|---4-4-4-4-4-4-X-X-5-5-5-5-5-5-X-X----|
D|---2-2-2-2-2-2-2-2-2-2-2-2-2-2-X-X----|---4-4-4-4-4-4-X-X-5-5-5-5-5-5-X-X----|
A|---2-2-2-2-2-2-2-2-2-2-2-2-2-2-X-X----|---2-2-2-2-2-2-X-X-3-3-3-3-3-3-X-X----|
D|---2-2-2-2-2-2-2-2-2-2-2-2-2-2-X-X----|--------------------------------------|

  Violin
E|--------------------------------------|--------------------------------------|
B|---17--17--17--17--17--17--17--17-----|---14--14--14--14--14--14--14--14-----|
G|--------------------------------------|--------------------------------------|
D|--------------------------------------|--------------------------------------|
A|--------------------------------------|--------------------------------------|
E|--------------------------------------|--------------------------------------|

E|--------------------------------------|--------------------------|
B|---12--12--12--12--12--12--12--12-----|---16--------17-----------|
G|--------------------------------------|--------------------------|
D|--------------------------------------|--------------------------|
A|--------------------------------------|--------------------------|
E|--------------------------------------|--------------------------|



OUTRO B

  Violin
E|---16-------------------------|---17----16-----------------|
B|---------17----14----14-------|-------------------17-------|
G|------------------------------|----------------------------|
D|------------------------------|----------------------------|
A|------------------------------|----------------------------|
E|------------------------------|----------------------------|

E|--------------------------|------------------------|
B|---12--------13-----------|---14-------------------|
G|--------------------------|------------------------|
D|--------------------------|------------------------|
A|--------------------------|------------------------|
E|--------------------------|------------------------|




|----------|
|  LEGEND  |
|----------|
|(n=number)|
|----------|----------|
|                     |
|   Harmonic       |
|                     |
| \n                  |
| /n   Arpeggio Down  |
| \n                  |
| /n                  |
|                     |
| X    Dead Note      |
|                     |
|---------------------|





            
            
Suggest correction
Creating personal tab
Creating personal tab
You can edit any tab online and save it as your Personal.

You can edit, replace or remove any tab part or add personal notes – all changes will be seen only by you.

Personal tabs can be accessed anytime from any device, even offline.
Learn more »
Give kudos to tab author, rate the tab!
1 2 3 4 5
comments
print report bad tab
guest
You may want to rate the tab now too:
select rating
Wanna post a correction for this tab? Suggest correction