Oops, an error
Loading. Please wait.

Paper Walls bass

version 1
version 1

Whole song

Interactive

1,155 views 3 this week
1 commentread comment
1 2 3 4 5
2 more votes to show rating
add to favorites
×
Save as Personal and add changes to this tab that will be seen only by you. Learn more ›
×
You can save this tab as Personal to edit and correct it or add notes. All changes will be seen only by you. Learn more »
launch autoscroll
font size
0
reset
guitar tuner
edit
Autoscroll
slow
fast
+/-
esc
set tempo
stop
Author
Difficulty
Paper Walls - Yellowcard
Tabbed by: UberBenny
E-Mail: benny.nixon@gmail.com
Tuning: Standard (E A D G)

Questions, comments, corrections, please email me at benny.nixon@gmail.com and I'll be 
to include you in here

This is my first tab and I also noticed there were no Paper Walls bass tabs and wow look 
have a bass so this is what I got

Also: at the bass lines during 0:52-1:08 I am aware that the notes switch up---that's 
to figure out on your own.

Acoustic Guitar opens with choir (0:00-0:35)

G |-----------------------------------------------------------|
D |----0~(optional)-------------------------------------------|
A |-----------------------------------------------------------|
E |-----------------------------------------------------------|

Electric Guitar enters at 0:36

G |-----------------------------------------------------------|
D |-----------------------------------------------------------|
A |---5-5-5---------(x8)--------------------------------------|
E |----------2-2-2--------------------------------------------|

Lets burn a hole... (0:52-1:08)

Bass Re-enters at 1:09

G |-7-7-7-7-7-7-7-7-7-7-7-7--------------------------(x4)-----|
D |---------------------------7-7-7-7-7-7-7-7-7-7-7-7---------|
A |-----------------------------------------------------------|
E |-----------------------------------------------------------|

Then Jump up by going

G |-7-7-7-7-7-7-7-7-7-7-7-7-----------11(play eleven 12 times)|
D |-------------------------7-7-7-7-7-7-----------------------|
A |-----------------------------------------------------------|
E |-----------------------------------------------------------|

1:31-1:49

G |-------------------------7-7-7-7-7-7-7-7-7-7-7-7-----------|
D |-----------------------------------------------------------|
A |-5-5-5-5-5-5-5-5-5-5-5-5-----------------------------------|
E |-----------------------------------------------------------|

Then back to{although slightly changed} (1:50-2:19[?])

G |--------------------------------------------------(x1)-----|
D |-7-7-7-7-7-7-7-7-7-7-7-7-5-5-5-5-5-5-5-5-5-5-5-5-----------|
A |-----------------------------------------------------------|
E |-----------------------------------------------------------|

then to

G |-------------------------7-7-7-7-7-7-7-7-7-7-7-7--(x4)-----|
D |-7-7-7-7-7-7-7-7-7-7-7-7-----------------------------------|
A |-----------------------------------------------------------|
E |-----------------------------------------------------------|

Change it to the jump up

G |7-7-7-7-7-7-7-7-7-7-7-7------------11(play eleven 12 times)|
D |-----------------------7-7-7-7-7-7-------------------------|
A |-----------------------------------------------------------|
E |-----------------------------------------------------------|

Now I'm pretty sure the chorus kinda goes to a repeating pattern until 2:51 (2:22-2:50)

G |-----------------------------------------------------------|
D |-----------------------------------------------------------|
A |---------------------5-5-555-5-5-5-5555--------------------|
E |-7-7-7-777-3-3-3-333---------------------------------------|

2:51-3:18

G |-----------------------------------------------------------|
D |---------------------------------------------(x4)----------|
A |--5-5-5-555-5-5-5-555--------------------------------------|
E |----------------------2-2-2-222-3-3-3-333------------------|

from 3:19-3:32 theres drums and acoustic then fall right into (from 3:40-3:42

G |-11--(however many times to fill for that long)------------|
D |-----------------------------------------------------------|
A |-----------------------------------------------------------|
E |-----------------------------------------------------------|

3:42-4:10

G |-7-7-7-7-7-7--------------(x7)-----------------------------|
D |-------------7-7-7-5-5-5-----------------------------------|
A |-----------------------------------------------------------|
E |-----------------------------------------------------------|

4:11-4:20

G |-----------------------------------------------------------|
D |-----------------------------------------------------------|
A |---5-5-5---------(x4)--------------------------------------|
E |----------2-2-2--------------------------------------------|

Fin.

[Kids singing:]
Let's burn a hole, so we can climb out.
Of these paper walls, and this empty house.
Don't listen too close, they're words are like guns.
With bullets that fly and kill what you've won..


Let's burn a hole, so we can climb out.
Of these paper walls, and this empty house.

We're the only thing that's real.

These visions we have of ten years ago,
Of stars in the sky and us down below.
In streets and east coast lines,
We kept this scene alive.

Here I am, still hold on to this,
Dream we had, won't let go of it,
Hear me now, you will never be alone..

Don't listen too close, they're words are like guns.
With bullets that fly and kill what you've won.
Some love to hate, and some tell you lies.
So lets make a toast, and kiss them goodbye..

We'll kiss them all goodbye..

Here I am, still hold on to this,
Dream we had, won't let go of it,
Hear me now, you will never be alone..

Here I stand, won't turn back again.
Won't leave you, know how hard it's been
Hear me now, you will never be alone..

Let's take what hurts, and write it all down.
On these paper walls, and this empty house.
And when our ink runs out, we'll burn it to the ground..

Here I am, still hold on to this
Dream we had, won't let go of it,
Hear me now, you will never be alone..

Here I stand, won't turn back again.
Won't leave you, know how hard it's been
Hear me now, you will never be alone..

Yeah..

            
            
Suggest correction
Creating personal tab
Creating personal tab
You can edit any tab online and save it as your Personal.

You can edit, replace or remove any tab part or add personal notes – all changes will be seen only by you.

Personal tabs can be accessed anytime from any device, even offline.
Learn more »
Give kudos to tab author, rate the tab!
1 2 3 4 5
comments
print report bad tab
1 comment total.
0 reply
rastabass 308 Dec 20, 2007 12:22 PM

are you sure thats it? id print it out but that seems boring...

good song though! we need more yellowcard bass tabs
like The Fighting

guest
You may want to rate the tab now too:
select rating
Wanna post a correction for this tab? Suggest correction