Oops, an error
Loading. Please wait.

Paper Walls album tab

version 1
version 1

Album

Whole song

Interactive

11,457 views 6 this week
4 commentsread comments
1 2 3 4 5
x 14
add to favorites
×
Save as Personal and add changes to this tab that will be seen only by you. Learn more ›
×
You can save this tab as Personal to edit and correct it or add notes. All changes will be seen only by you. Learn more »
launch autoscroll
font size
0
reset
how to read this tab
guitar tuner
edit
Autoscroll
slow
fast
+/-
esc
set tempo
stop
Author
Tabbers playing skills
advanced +
By-Francis
Location - Carmelite, Lucena City
Cp #- 09287150674 
E-add- f_sario@yahoo.com  (friendster)add me!
S H C lucena


Paper Walls Album-YELLOWCARD

TITLE-TABBERS
1.TAKEDOWN  -DOOBIDOO
2.FIGHTING-amerminority
3.SHRINK THE WORLD-DOOBIDOO
4.KEEPER-DOOBIDOO
5.LIGHT UP THE SKY-DOOBIDOO
6.SHADOWS AND REGRETS-DOOBIDOO
7.5 BECOMES 4-Anthinator
8.AFRAID-DOOBIDOO
9.DATE LINE-DOOBIDOO
10.DEAR BOBBIE-DOOBIDOO
11.DATE LINE-DOOBIDOO
12.CUT ME MICK-Anthinator
13.PAPER WALLS-minichibi




----------------------------------------------------------------------
			1.Takedown - Yellowcard
----------------------------------------------------------------------

Tuning-

Guitar 1  e b g d A D
Guitar 2  e b g d A D
Guitar 3  e b g d A D
        
Intro-
1.
Guitar1
|---------------------------------------------------------|
|---------------------------------------------------------|
|-------------------------------7~---~~~~~~~~~------------|
|-------------------------------7~------------------------|
|-----5^---5^-------5^---5^-----5~---~~~~~~~~~------------|
|-4-4----4----4-5-5----5----5-----------------------------|
  Guitar2
|-------------------------------------------|
|-------------------------------------------|
|-------------------------------------------|
|------------------------------0~-----------|
|------------------------------0~-Rocket-fx-|
|------------------------------0~pick slide-|
  
2.
  Guitar1
|------------------------------------------------------------|
|------------------------------------------------------------|
|------------------------------------------------------------|
|------------------------------------------------------------|2x
|-----5^---5^-------5^---5^--------5^---------4^---4^--------|
|-4-4----4----4-5-5----5----5--0-0---0--0-0-0----0-----------|
  Guitar2
|------------------------------------------------------------------|
|------------------------------------------------------------------|
|------------------------------------------------------------------|
|-4-4--4--4-4---4-5-5--5--5--5--5--7-7-7-7-7-7-7-7--7--------------|2x
|-4-4--4--4-4---4-5-5--5--5--5--5--5-5-5-5-5-5-5-5--5--------------|
|-4-4--4--4-4---4-5-5--5--5--5--5--0-0-0-0-0-0-0-0--0--------------|

  3.
Guitar1
|--------------------------------------------------------------|
|--------------------------------------------------------------|
|--------------------------------------------------------------|
|------4^---4^---4^------4^--4----------4^--4^---------2^---2^-|
|-5^-5^---5----5---5^-5^----5^--5^-5^-5^--5^----5^-5^-5^--5^---|2x
|--------------------------------------------------------------|
  Guitar2
|----------------------------------------------------------------|
|----------------------------------------------------------------|
|----------------------------------------------------------------|
|-4-4--4--4-4---4-5-5--5--5--5--5--7-7-7-7-7-7-7-7--7------------|
|-4-4--4--4-4---4-5-5--5--5--5--5--5-5-5-5-5-5-5-5--5------------|
|-4-4--4--4-4---4-5-5--5--5--5--5--0-0-0-0-0-0-0-0--0------------|
  
4.
  Guitar1
|--------------------------------------|
|--------------------------------------|
|-----------------------------------7~-|
|------4^---4^---4^------4^--4^-----7~-|
|-5^-5^---5----5---5^-5^----5^--5^--5~-|
|--------------------------------------|
  Guitar2
|-----------------------------------------------|
|-----------------------------------------------|
|-----------------------------------------------|
|-4-4--4--4-4---4-5-5--5--5--5--5---7~----------|
|-4-4--4--4-4---4-5-5--5--5--5--5---5~----------|
|-4-4--4--4-4---4-5-5--5--5--5--5---------------|
  
Verse-nOT SURE-


  I feel things changing when I move
(Its a distance, Its a difference)
 Guitar1
|------------------------------------------------|
|------------------------------------------------|
|------------------------------------------------|
|-----4------2--------2--------------------------|
|-5-------5-------5-------5---------5--5---------|
|------------------------------------------------|

I'll cross this planet without you
(and you might call this a downfall)
 Guitar1
|------------------------------------------------|
|------------------------------------------------|
|------------------------------------------------|
|-----4------2--------2--------------------------|
|-5-------5-------5-------5---------5--5---------|
|------------------------------------------------|

Its one long night that I'm passing through
(Its a dark one what have I done)
 Guitar1

|------------------------------------------------|
|------------------------------------------------|
|------------------------------------------------|
|-----4------2--------2--------------------------|
|-5-------5-------5-------5---------5--5---------|
|------------------------------------------------|
Its one long night...
 Guitar2
|-----------------------------|
|-----------------------------|
|-------0--2---0---0--2p0-----|
|-----4------4---4------------|Not sure of this
|---5-------------------------|
|-----------------------------|

  
Chorus-F#m G D 3x 
Don't turn your back on me now
You can't do this 

  Guitar1
|------------------------------------------------------------------|
|------------------------------------------------------------------|
|------------------------------------------------------------------|
|-4-4--4--4-4---4-5-5--5--5--5--5--7-7-7-7-7-7-7-7-7-7-7-7-7-7-7-7-|
|-4-4--4--4-4---4-5-5--5--5--5--5--5-5-5-5-5-5-5-5-5-5-5-5-5-5-5-5-|
|-4-4--4--4-4---4-5-5--5--5--5--5----------------------------------|
  Guitar2
|------------------------------------------------------------------|
|------------------------------------------------------------------|
|------------------------------------------------------------------|
|-4-4--4--4-4---4-5-5--5--5--5--5--0-0-0-0-0-0-0-0-0-0-0-0-0-0-0-0-|
|-4-4--4--4-4---4-5-5--5--5--5--5--0-0-0-0-0-0-0-0-0-0-0-0-0-0-0-0-|
|-4-4--4--4-4---4-5-5--5--5--5--5--0-0-0-0-0-0-0-0-0-0-0-0-0-0-0-0-|

 Guitar3=violin

<----3x------><---------3x------><-----------2x-------------->

|-------------|------------------|-10------------------------|
|-------------|------------------|----10--7--8-10--8----7----|
|-11-999-7----|--12---999--7-----|---------------------------|
|-------------|------------------|---------------------------|
|-------------|------------------|---------------------------|
|-------------|------------------|---------------------------|

Don't say you can live without
You can't do this alone

  Guitar1
|------------------------------------------------------------------|
|------------------------------------------------------------------|
|------------------------------------------------------------------|
|-4-4--4--4-4---4-5-5--5--5--5--5--7-7-7-7-7-7-7-7--7--------------|
|-4-4--4--4-4---4-5-5--5--5--5--5--5-5-5-5-5-5-5-5--5--------------|
|-4-4--4--4-4---4-5-5--5--5--5--5----------------------------------|
  Guitar2
|------------------------------------------------------------------|
|------------------------------------------------------------------|
|------------------------------------------------------------------|
|-4-4--4--4-4---4-5-5--5--5--5--5--0-0-0-0-0-0-0-0-0---------------|
|-4-4--4--4-4---4-5-5--5--5--5--5--0-0-0-0-0-0-0-0-0---------------|
|-4-4--4--4-4---4-5-5--5--5--5--5--0-0-0-0-0-0-0-0-0---------------|


 Guitar3=violin

<----3x------><---------3x------><-----------2x-------------->

|-------------|------------------|-10------------------------|-----------9-10-12-|
|-------------|------------------|----10--7--8-10--8----7----|-10--12-12---------|
|-11-999-7----|--12---999--7-----|---------------------------|-------------------|
|-------------|------------------|---------------------------|-------------------|
|-------------|------------------|---------------------------|-------------------|
|-------------|------------------|---------------------------|-------------------|
How did I end up like this, the lonely one,
Your greatest take down?


  Guitar1
|------------------------------------------------------------------|
|------------------------------------------------------------------|
|------------------------------------------------------------------|
|-4-4--4--4-4---4-5-5--5--5--5--5--7-7-7-7-7-7-7-7--7--------------|
|-4-4--4--4-4---4-5-5--5--5--5--5--5-5-5-5-5-5-5-5--5--------------|
|-4-4--4--4-4---4-5-5--5--5--5--5----------------------------------|
  Guitar2
|------------------------------------------------------------------|
|------------------------------------------------------------------|
|------------------------------------------------------------------|
|-4-4--4--4-4---4-5-5--5--5--5--5--0-0-0-0-0-0-0-0-0---------------|
|-4-4--4--4-4---4-5-5--5--5--5--5--0-0-0-0-0-0-0-0-0---------------|
|-4-4--4--4-4---4-5-5--5--5--5--5--0-0-0-0-0-0-0-0-0---------------|

 Guitar3=violin

<----3x------><---------3x-------->

|-14-121212-10-|--15-121212-10----|-17----17---------14---17-------------|
|--------------|------------------|----15------15-17---15----15--17-15---|
|--------------|------------------|---------14---------------------------|
|--------------|------------------|--------------------------------------|
|--------------|------------------|--------------------------------------|
|--------------|------------------|--------------------------------------|
  
You take me down


  Guitar1
|------------------------------------------------------------------|
|------------------------------------------------------------------|
|------------------------------------------------------------------|
|-4-4--4--4-4---4-5-5--5--5--5--5--7-7-7-7-7-7-7-7--7--------------|
|-4-4--4--4-4---4-5-5--5--5--5--5--5-5-5-5-5-5-5-5--5--------------|
|-4-4--4--4-4---4-5-5--5--5--5--5----------------------------------|
  Guitar2
|------------------------------------------------------------------|
|------------------------------------------------------------------|
|------------------------------------------------------------------|
|-4-4--4--4-4---4-5-5--5--5--5--5--0-0-0-0-0-0-0-0-0---------------|
|-4-4--4--4-4---4-5-5--5--5--5--5--0-0-0-0-0-0-0-0-0---------------|
|-4-4--4--4-4---4-5-5--5--5--5--5--0-0-0-0-0-0-0-0-0---------------|

 Guitar3=violin

<----3x------><---------2x-------->

|-14-121212-10-|--15-121212-10----|--15--12--10--12--10------------------|
|--------------|------------------|--------------------------------------|
|--------------|------------------|--------------------------------------|
|--------------|------------------|--------------------------------------|
|--------------|------------------|--------------------------------------|
|--------------|------------------|--------------------------------------|

  
Verse2-
  Left last night with a long goodbye
(We cement why, through a phone line)



  Guitar1
|------------------------------------------------------------------|
|------------------------------------------------------------------|
|------------------------------------------------------------------|
|-4-4--4--4-4---4-5-5--5--5--5--5--7-7-7-7-7-7-7-7-7-7-7-7-7-7-7-7-|
|-4-4--4--4-4---4-5-5--5--5--5--5--5-5-5-5-5-5-5-5-5-5-5-5-5-5-5-5-|
|-4-4--4--4-4---4-5-5--5--5--5--5----------------------------------|


Guitar2 trem.
|-----------------------------------------|
|-----------------------------------------|
|-----------------------------------------|
|-----------------------------------------|
|-5-55-9*--55-77*-55-77*-55-77*-55--------|
|-----------------------------------------|

I told you thoughts that multiply
(That I don't know how to let go)


  Guitar1
|------------------------------------------------------------------|
|------------------------------------------------------------------|
|------------------------------------------------------------------|
|-4-4--4--4-4---4-5-5--5--5--5--5--7-7-7-7-7-7-7-7-7-7-7-7-7-7-7-7-|
|-4-4--4--4-4---4-5-5--5--5--5--5--5-5-5-5-5-5-5-5-5-5-5-5-5-5-5-5-|
|-4-4--4--4-4---4-5-5--5--5--5--5----------------------------------|

Guitar2 trem.
|-----------------------------------------|
|-----------------------------------------|
|-----------------------------------------|
|-----------------------------------------|
|-5-55-9*--55-77*-55-77*-55-77*-55--------|
|-----------------------------------------|

We've been here many times before
(I am empty, when you leave me)


  Guitar1
|------------------------------------------------------------------|
|------------------------------------------------------------------|
|------------------------------------------------------------------|
|-4-4--4--4-4---4-5-5--5--5--5--5--7-7-7-7-7-7-7-7-7-7-7-7-7-7-7-7-|
|-4-4--4--4-4---4-5-5--5--5--5--5--5-5-5-5-5-5-5-5-5-5-5-5-5-5-5-5-|
|-4-4--4--4-4---4-5-5--5--5--5--5----------------------------------|


Guitar2 trem.
|-----------------------------------------|
|-----------------------------------------|
|-----------------------------------------|
|-----------------------------------------|
|-5-55-9*--55-77*-55-77*-55-77*-55--------|
|-----------------------------------------|

What's one more?
 Guitar2
|-----------------------------|
|-----------------------------|
|-------0--2---0---0--2p0-----|
|-----4------4---4------------|Not sure of this
|---5-------------------------|
|-----------------------------|

  
Do Chorus-
Don't turn your back on me now
You can't do this 
Don't say you can live without
You can do this alone
How did I end up like this, the broken one,
Your greatest take down?
You take me down

  solo-

Guitar1
|-------------------------------------------------------------------|
|-------------------------------------------------------------------|
|---7----7-------7----7------7----7------7---7------7---7----7---7--|
|----------7------------7----------7-----------7----------7-------7-|
|-5---5-------5----5-------5---5-------5----5-----5---5-----5--5----|
|-------------------------------------------------------------------|
  Guitar2
|-----------------------------------------------------------------|
|-----------------------------------------------------------------|
|-4---------------4-----------------------------------------------|
|-4--4---5---0----4---4---5---0---2---4---5---7-------------------|
|-2--4---5---0----2---4---5---0---2---4---5---7-------------------|
|----4---5---0--------4---5---0---2---4---5---7-------------------|

Guitar3
|-12--14--15-17-|
|---------------|
|---------------|
|---------------|
|---------------|
|---------------|

|---17------------14-----17-15--14-------17------------14--------------|
|-15--15-17-15-17---17-15----------17--15--15-17-15-17---17-15-17--15--|
|----------------------------------------------------------------------|
|----------------------------------------------------------------------|
|----------------------------------------------------------------------|
|----------------------------------------------------------------------|

|----17-15--14-----------10----|
|-15------------17-15-17----15-|
|------------------------------|
|------------------------------|
|------------------------------|
|------------------------------|

  
Guitar1&2
|-----two times---------------|

|-----------------------------|-----------------------------------------------------|
|-----------------------------|-----------------------------------------------------|
|-444444----------------------|-----------------------------------------------------|
|-444444-444444-55555--000000-|-00000000-22222222-44444444-5555555-777777777--7~----|
|-222222-444444-55555--000000-|-00000000-22222222-44444444-5555555-777777777--5~----|
|--------444444-55555--000000-|-00000000-22222222-44444444-5555555-777777777-~------|


Guitar3
|-----------------------------------------17---------------------------|
|-14h15p14p12-10^---7--9-/--10^-------15------15--10-8-7---------------|
|-------------------------------9^-------------------------------------|
|---------------------------------------------------------7-5-4--------|
|----------------------------------------------------------------7--5--|
|----------------------------------------------------------------------|

|----------------------------------------------------------------------|
|----------------------------------------------------------------------|
|--7-666---7-666-7-----7-666--696--666---s9^---------------------------|
|-7------7------------------7----7-------------------------------------|
|----------------------------------------------------------------------|
|----------------------------------------------------------------------|

|-------17-----17-----------------------------------------|
|-15--15--17-15--17-15-14-15-14---------------------------|
|------------------------------14-12-14-12-11--11---14----|
|--------------------------------------------12-------14--|
|---------------------------------------------------------|
|---------------------------------------------------------|

|--------------------------------------------------------------|
|----------------------------------------------------------9^--|
|------------------------6-7^-----------------------9-11-12----|
|---------------------7-9-----------9-11-12-9-11-12------------|
|-------7-9-10-7-9-10--------9-10-12---------------------------|
|-7-9-10-------------------------------------------------------|


|-----------------------------------------------|
|------------------------------12-14--12-14-15--|
|---------11-12-14-11-12-14-14------14----------|
|-11-12-14--------------------------------------|
|-----------------------------------------------|
|-----------------------------------------------|



|-12-14-12-11-10--11--12-14-12-11-10-11---9-10--|
|---------------------------------------10------|
|-----------------------------------------------|
|-----------------------------------------------|
|-----------------------------------------------|
|-----------------------------------------------|
]

Bridge-
I won't get by 
I won't heal in time
I won't get by

Guitar1 many x
|-----------------------------------------|
|-----------------------------------------|
|---------7-------------7------7----------|
|---7---7----7----7---7----7--------------|
|-5---5---------5----5-------5------------|3X
|-----------------------------------------|


  Repeat Chorus-
  You take me down
  
OUTRO-  3.
Guitar1
|--------------------------------------------------------------|
|--------------------------------------------------------------|
|--------------------------------------------------------------|
|------4^---4^---4^------4^--4^---------4^--4^---------2^---2^-|
|-5^-5^---5----5---5^-5^----5^--5^-5^-5^--5^----5^-5^-5^--5^---|2x
|--------------------------------------------------------------|
  Guitar2
|----------------------------------------------------------------|
|----------------------------------------------------------------|
|----------------------------------------------------------------|
|-4-4--4--4-4---4-5-5--5--5--5--5--7-7-7-7-7-7-7-7--7------------|2x
|-4-4--4--4-4---4-5-5--5--5--5--5--5-5-5-5-5-5-5-5--5------------|
|-4-4--4--4-4---4-5-5--5--5--5--5--------------------------------|
  
4.
  Guitar1
|--------------------------------------|
|--------------------------------------|
|-----------------------------------7~-|
|------4^---4^---4^------4^--4^-----7~-|
|-5^-5^---5----5---5^-5^----5^--5^--5~-|
|--------------------------------------|




-----------------------------------------------------------------------
                       2.Fighting
-----------------------------------------------------------------------


By-amerminority

Intro:
------

Guitar 1
E|-------------------------------------------------------------|
B|-------------------------------------------------------------|
G|-5-5-5-5-------5-5-5-5--------7-7-7-7-------9-9-9------------|
D|-5-5-5-5-------5-5-5-5--------7-7-7-7-------9-9-9---4-4-4----|
A|-3-3-3-3-------3-3-3-3--------5-5-5-5-------7-7-7---5-5-5----|
E|-3-3-3-3-------3-3-3-3--------5-5-5-5-------7-7-7---2-2-2----|

Guitar 2
E|-------------------------------------------------------------|
B|-------------------------------------------------------------|
G|-------------------------------------------------------------|
D|-------------------------------------------------------------|
A|-------------------------------------------------------------|
E|-------------------------------------------------------------|

Guitar 1
E|-------------------------------------------------------------|
B|-------------------------------------------------------------|
G|-5-5-5-5-------5-5-5-5--------7-7-7-7-------9-9-9------------|
D|-5-5-5-5-------5-5-5-5--------7-7-7-7-------9-9-9---4-4-4----|
A|-3-3-3-3-------3-3-3-3--------5-5-5-5-------7-7-7---5-5-5----|
E|-3-3-3-3-------3-3-3-3--------5-5-5-5-------7-7-7---2-2-2----|

Guitar 2
E|-------------------------------------------------------------|
B|-15----15--15--15----15--15---10----10--10--12--12--13--13---|
G|---1212--12--12--1212--12--12---1212--12--12--12--12--12--12-|
D|-------------------------------------------------------------|
A|-------------------------------------------------------------|
E|-------------------------------------------------------------|

Guitar 1
E|-------------------------------------------------------------|
B|-------------------------------------------------------------|
G|-5-5-5-5-------5-5-5-5--------7-7-7-7-------9-9-9------------|
D|-5-5-5-5-------5-5-5-5--------7-7-7-7-------9-9-9---4-4-4----|
A|-3-3-3-3-------3-3-3-3--------5-5-5-5-------7-7-7---5-5-5----|
E|-3-3-3-3-------3-3-3-3--------5-5-5-5-------7-7-7---2-2-2----|

Guitar 2
E|-------------------------------------------------------------|
B|-15----15--15--15-----15--15--12----12--12--10----10----10---|
G|---1212--12--12---1212--12--12--1212--12--12--1212--1212--12-|
D|-------------------------------------------------------------|
A|-------------------------------------------------------------|
E|-------------------------------------------------------------|


Verse:
------

Guitar 1
E|-------------------------------------------------------------|
B|-------------------------------------------------------------|
G|-------------------------------------------------------------|
D|-------------------------------------------------------------|
A|-----------------------------------------------5-5-5-5-5-5-5-|
E|-0-0-0-0-0-0-0-0-0-0-0-0-0-0-0-03-3-3-3-3-3-3-3--------------|

Guitar 2
E|-------------------------------------------------------------|
B|-------------------------------------------------------------|
G|-------------------------------------------------------------|
D|-------------------------------------------------------------|
A|-------------------------------------------------------------|
E|-------------------------------------------------------------|

Guitar 1:
E|-------------------------------------------------------------|
B|-------------------------------------------------------------|
G|-------------------------------------------------------------|
D|-------------------------------------------------------------|
A|------------------------------3-3-3-3-3-3-3-3----------------|
E|-0-0-0-0-0-0-0-0-0-0-0-0-0-0-0---------------5-5-5-5-5-5-5-5-|

Guitar 2
E|-------------------------------------------------------------|
B|-------------------------------------------------------------|
G|-------------------------------------------------------------|
D|-11b---------------------------------------------------------|
A|-------------------------------------------------------------|
E|-------------------------------------------------------------|

Guitar 1
E|-------------------------------------------------------------|
B|-------------------------------------------------------------|
G|-------------------------------------------------------------|
D|-------------------------------------------------------------|
A|-----------------------------------------------5-5-5-5-5-5-5-|
E|-0-0-0-0-0-0-0-0-0-0-0-0-0-0-0-03-3-3-3-3-3-3-3--------------|

Guitar 2
E|-------------------------------------------------------------|
B|-------------------------------------------------------------|
G|-------------------------------------------------------------|
D|-11b---------------------------------------------------------|
A|-------------------------------------------------------------|
E|-------------------------------------------------------------|

Guitar 1:
E|-------------------------------------------------------------|
B|-------------------------------------------------------------|
G|-------------------------------------------------------------|
D|-------------------------------------------------------------|
A|------------------------------3-3-3-3-3-3-3-3----------------|
E|-0-0-0-0-0-0-0-0-0-0-0-0-0-0-0---------------5-5-5-5-5-5-5-5-|

Guitar 2
E|-------------------------------------------------------------|
B|-------------------------------------------------------------|
G|-------------------------------------------------------------|
D|-11b---------------------------------------------------------|
A|-------------------------------------------------------------|
E|-------------------------------------------------------------|


Chorus: x2
-------

Guitar 1
E|-------------------------------------------------------------|
B|-------------------------------------------------------------|
G|-5-5-5-5-5-5-5-55-5-5-5-5-5-5-57-7-7-7-7-7-7-79-9-9-9--------|
D|-5-5-5-5-5-5-5-55-5-5-5-5-5-5-57-7-7-7-7-7-7-79-9-9-94-4-4-4-|
A|-3-3-3-3-3-3-3-33-3-3-3-3-3-3-35-5-5-5-5-5-5-57-7-7-75-5-5-5-|
E|-3-3-3-3-3-3-3-33-3-3-3-3-3-3-35-5-5-5-5-5-5-57-7-7-72-2-2-2-|

Guitar 2
E|-------------------------------------------------------------|
B|-----------------------------------------------------8-8-1010|
G|-5-5-5-5-5-5-5-55-5-5-5-5-5-5-57-7-7-7-7-7-7-79-9-9-9x-x-x-x-|
D|-x-x-x-x-x-x-x-xx-x-x-x-x-x-x-xx-x-x-x-x-x-x-xx-x-x-x5-5-7-7-|
A|-3-3-3-3-3-3-3-33-3-3-3-3-3-3-35-5-5-5-5-5-5-57-7-7-7--------|
E|-------------------------------------------------------------|


Post Chorus:
------------

Guitar 1
E|--------------------------------------|
B|--------------------------------------|
G|-5-5-5-5-------5-5-5-5--------7-7-7-7-|
D|-5-5-5-5-------5-5-5-5--------7-7-7-7-|
A|-3-3-3-3-------3-3-3-3--------5-5-5-5-|
E|-3-3-3-3-------3-3-3-3--------5-5-5-5-|

Guitar 2
E|--------------------------------------|
B|--------------------------------------|
G|-5-5-5-5-------5-5-5-5--------7-7-7-7-|
D|-x-x-x-x-------x-x-x-x--------x-x-x-x-|
A|-3-3-3-3-------3-3-3-3--------5-5-5-5-|
E|--------------------------------------|


Verse:
------

Guitar 1
E|-------------------------------------------------------------|
B|-------------------------------------------------------------|
G|-------------------------------------------------------------|
D|-------------------------------------------------------------|
A|-----------------------------------------------5-5-5-5-5-5-5-|
E|-0-0-0-0-0-0-0-0-0-0-0-0-0-0-0-03-3-3-3-3-3-3-3--------------|

Guitar 2
E|-------------------------------------------------------------|
B|-------------------------------------------------------------|
G|-------------------------------------------------------------|
D|-11b---------------------------------------------------------|
A|-------------------------------------------------------------|
E|-------------------------------------------------------------|

Guitar 1:
E|-------------------------------------------------------------|
B|-------------------------------------------------------------|
G|-------------------------------------------------------------|
D|-------------------------------------------------------------|
A|------------------------------3-3-3-3-3-3-3-3----------------|
E|-0-0-0-0-0-0-0-0-0-0-0-0-0-0-0---------------5-5-5-5-5-5-5-5-|

Guitar 2
E|-------------------------------------------------------------|
B|-------------------------------------------------------------|
G|-------------------------------------------------------------|
D|-11b---------------------------------------------------------|
A|-------------------------------------------------------------|
E|-------------------------------------------------------------|

Guitar 1
E|-------------------------------------------------------------|
B|-------------------------------------------------------------|
G|-------------------------------------------------------------|
D|-------------------------------------------------------------|
A|-----------------------------------------------5-5-5-5-5-5-5-|
E|-0-0-0-0-0-0-0-0-0-0-0-0-0-0-0-03-3-3-3-3-3-3-3--------------|

Guitar 2
E|--------------------------------------------------------------|
B|--------------------------------------------------------------|
G|--------------------------------------------------------------|
D|-11b-10b-11b-10b-11b-10b-11b-10b11b-10b-11b-10b11b-10b-11b-10b|
A|--------------------------------------------------------------|
E|--------------------------------------------------------------|

Guitar 1:
E|-------------------------------------------------------------|
B|-------------------------------------------------------------|
G|-------------------------------------------------------------|
D|-------------------------------------------------------------|
A|------------------------------3-3-3-3-3-3-3-3----------------|
E|-0-0-0-0-0-0-0-0-0-0-0-0-0-0-0---------------5-5-5-5-5-5-5-5-|

Guitar 2
E|--------------------------------------------------------------|
B|--------------------------------------------------------------|
G|--------------------------------------------------------------|
D|-11b-10b-11b-10b-11b-10b-11b-10b11b-10b-11b-10b11b-10b-11b-10b|
A|--------------------------------------------------------------|
E|--------------------------------------------------------------|


Chorus: x2
-------

Guitar 1
E|-------------------------------------------------------------|
B|-------------------------------------------------------------|
G|-5-5-5-5-5-5-5-55-5-5-5-5-5-5-57-7-7-7-7-7-7-79-9-9-9--------|
D|-5-5-5-5-5-5-5-55-5-5-5-5-5-5-57-7-7-7-7-7-7-79-9-9-94-4-4-4-|
A|-3-3-3-3-3-3-3-33-3-3-3-3-3-3-35-5-5-5-5-5-5-57-7-7-75-5-5-5-|
E|-3-3-3-3-3-3-3-33-3-3-3-3-3-3-35-5-5-5-5-5-5-57-7-7-72-2-2-2-|

Guitar 2
E|-------------------------------------------------------------|
B|-----------------------------------------------------8-8-1010|
G|-5-5-5-5-5-5-5-55-5-5-5-5-5-5-57-7-7-7-7-7-7-79-9-9-9x-x-x-x-|
D|-x-x-x-x-x-x-x-xx-x-x-x-x-x-x-xx-x-x-x-x-x-x-xx-x-x-x5-5-7-7-|
A|-3-3-3-3-3-3-3-33-3-3-3-3-3-3-35-5-5-5-5-5-5-57-7-7-7--------|
E|-------------------------------------------------------------|

Intro:
------

Guitar 1
E|-------------------------------------------------------------|
B|-------------------------------------------------------------|
G|-5-5-5-5-------5-5-5-5--------7-7-7-7-------9-9-9------------|
D|-5-5-5-5-------5-5-5-5--------7-7-7-7-------9-9-9---4-4-4----|
A|-3-3-3-3-------3-3-3-3--------5-5-5-5-------7-7-7---5-5-5----|
E|-3-3-3-3-------3-3-3-3--------5-5-5-5-------7-7-7---2-2-2----|

Guitar 2
E|-------------------------------------------------------------|
B|-15----15--15--15----15--15---10----10--10--12--12--13--13---|
G|---1212--12--12--1212--12--12---1212--12--12--12--12--12--12-|
D|-------------------------------------------------------------|
A|-------------------------------------------------------------|
E|-------------------------------------------------------------|

Guitar 1
E|-------------------------------------------------------------|
B|-------------------------------------------------------------|
G|-5-5-5-5-------5-5-5-5--------7-7-7-7-------9-9-9------------|
D|-5-5-5-5-------5-5-5-5--------7-7-7-7-------9-9-9---4-4-4----|
A|-3-3-3-3-------3-3-3-3--------5-5-5-5-------7-7-7---5-5-5----|
E|-3-3-3-3-------3-3-3-3--------5-5-5-5-------7-7-7---2-2-2----|

Guitar 2
E|-------------------------------------------------------------|
B|-15----15--15--15-----15--15--12----12--12--10----10----10---|
G|---1212--12--12---1212--12--12--1212--12--12--1212--1212--12-|
D|-------------------------------------------------------------|
A|-------------------------------------------------------------|
E|-------------------------------------------------------------|


Bridge:
-------

Guitar 1
E|-------------------------------------------------------------|
B|-------------------------------------------------------------|
G|-5~----------------------------------------------------------|
D|-5~----------------------------------------------------------|
A|-3~----------------------------------------------------------|
E|-------------------------------------------------------------|

Guitar 2
E|-------------------------------------------------------------|
B|-------------------------------------------------------------|
G|-121212121111-1414141414141414-121212121111-1616161616161616-|
D|-x-x-x-x-xxxx-x-x-x-x-x-x-x-x--x-x-x-x-xxxx-x-x-x-x-x-x-x-x--|
A|-101010109999-1212121212121212-101010109999-1414141414141414-|
E|-------------------------------------------------------------|


Interlude: (play it over and over tell it ends)
----------

Guitar 1
E|-------------------------------------------------------------|
B|-------------------------------------------------------------|
G|-------------------------------------------------------------|
D|-2-2-2-2-2-2-2-25-5-5-5-5-5-5-55-5-5-5-5-5-5-55-5-5-5-5-5-5-5|
A|-2-2-2-2-2-2-2-23-3-3-3-3-3-3-33-3-3-3-3-3-3-35-5-5-5-5-5-5-5|
E|-0-0-0-0-0-0-0-03-3-3-3-3-3-3-3---------------3-3-3-3-3-3-3-3|

Guitar 2
E|-------------------------------------------------------------|
B|-------------------------------------------------------------|
G|-121212121111-1414141414141414-121212121111-1616161616161616-|
D|-x-x-x-x-xxxx-x-x-x-x-x-x-x-x--x-x-x-x-xxxx-x-x-x-x-x-x-x-x--|
A|-101010109999-1212121212121212-101010109999-1414141414141414-|
E|-------------------------------------------------------------|

Guitar 1
E|-------------------------------------------------------------|
B|-------------------------------------------------------------|
G|-------------------------------------------------------------|
D|-2-2-2-2-2-2-2-25-5-5-5-5-5-5-55-5-5-5-5-5-5-57-7-7-7-7-7-7-7|
A|-2-2-2-2-2-2-2-23-3-3-3-3-3-3-33-3-3-3-3-3-3-35-5-5-5-5-5-5-5|
E|-0-0-0-0-0-0-0-03-3-3-3-3-3-3-3---------------5-5-5-5-5-5-5-5|

Interlude:
----------

Guitar 1
E|-------------------------------------------------------------|
B|-------------------------------------------------------------|
G|-5~----------------------------------------------------------|
D|-5~----------------------------------------------------------|
A|-3~----------------------------------------------------------|
E|-------------------------------------------------------------|

Guitar 2
E|-------------------------------------------------------------|
B|-------------------------------------------------------------|
G|-5~----------------------------------------------------------|
D|-5~----------------------------------------------------------|
A|-3~----------------------------------------------------------|
E|-------------------------------------------------------------|


Chorus: x2
-------

Guitar 1
E|-------------------------------------------------------------|
B|-------------------------------------------------------------|
G|-5-5-5-5-5-5-5-55-5-5-5-5-5-5-57-7-7-7-7-7-7-79-9-9-9--------|
D|-5-5-5-5-5-5-5-55-5-5-5-5-5-5-57-7-7-7-7-7-7-79-9-9-94-4-4-4-|
A|-3-3-3-3-3-3-3-33-3-3-3-3-3-3-35-5-5-5-5-5-5-57-7-7-75-5-5-5-|
E|-3-3-3-3-3-3-3-33-3-3-3-3-3-3-35-5-5-5-5-5-5-57-7-7-72-2-2-2-|

Guitar 2
E|-------------------------------------------------------------|
B|-----------------------------------------------------8-8-1010|
G|-5-5-5-5-5-5-5-55-5-5-5-5-5-5-57-7-7-7-7-7-7-79-9-9-9x-x-x-x-|
D|-x-x-x-x-x-x-x-xx-x-x-x-x-x-x-xx-x-x-x-x-x-x-xx-x-x-x5-5-7-7-|
A|-3-3-3-3-3-3-3-33-3-3-3-3-3-3-35-5-5-5-5-5-5-57-7-7-7--------|
E|-------------------------------------------------------------|

Outro:

Guitar 1
E|-------------------------------------------------------------|
B|-------------------------------------------------------------|
G|-5-5-5-5-------5-5-5-5--------7-7-7-7-------9-9-9------------|
D|-5-5-5-5-------5-5-5-5--------7-7-7-7-------9-9-9---4-4-4----|
A|-3-3-3-3-------3-3-3-3--------5-5-5-5-------7-7-7---5-5-5----|
E|-3-3-3-3-------3-3-3-3--------5-5-5-5-------7-7-7---2-2-2----|

Guitar 2
E|-------------------------------------------------------------|
B|-15----15--15--15----15--15---10----10--10--12--12--13--13---|
G|---1212--12--12--1212--12--12---1212--12--12--12--12--12--12-|
D|-------------------------------------------------------------|
A|-------------------------------------------------------------|
E|-------------------------------------------------------------|

Guitar 1
E|-------------------------------------------------------------|
B|-------------------------------------------------------------|
G|-5-5-5-5-------5-5-5-5--------7-7-7-7-------9-9-9------------|
D|-5-5-5-5-------5-5-5-5--------7-7-7-7-------9-9-9---4-4-4----|
A|-3-3-3-3-------3-3-3-3--------5-5-5-5-------7-7-7---5-5-5----|
E|-3-3-3-3-------3-3-3-3--------5-5-5-5-------7-7-7---2-2-2----|

Guitar 2
E|-------------------------------------------------------------|
B|-15----15--15--15-----15--15--12----12--12--10----10----10---|
G|---1212--12--12---1212--12--12--1212--12--12--1212--1212--12-|
D|-------------------------------------------------------------|
A|-------------------------------------------------------------|
E|-------------------------------------------------------------|

Guitar 1
E|-------------------------------------------------------------|
B|-------------------------------------------------------------|
G|-5-5-5-5-------5-5-5-5--------7-7-7-7-------9-9-9------------|
D|-5-5-5-5-------5-5-5-5--------7-7-7-7-------9-9-9---4-4-4----|
A|-3-3-3-3-------3-3-3-3--------5-5-5-5-------7-7-7---5-5-5----|
E|-3-3-3-3-------3-3-3-3--------5-5-5-5-------7-7-7---2-2-2----|

Guitar 2
E|-------------------------------------------------------------|
B|----------------------------------------------------8-8-10---|
G|-5-5-5-5-------5-5-5-5--------7-7-7-7-------9-9-9---x-x-x----|
D|-x-x-x-x-------x-x-x-x--------x-x-x-x-------x-x-x---5-5-7----|
A|-3-3-3-3-------3-3-3-3--------5-5-5-5-------7-7-7------------|
E|-------------------------------------------------------------|

Guitar 1
E|-------------------------------------------------------------|
B|-------------------------------------------------------------|
G|-5-5-5-5-------5-5-5-5--------7-7-7-7-------9-9-9------------|
D|-5-5-5-5-------5-5-5-5--------7-7-7-7-------9-9-9---4-4-4----|
A|-3-3-3-3-------3-3-3-3--------5-5-5-5-------7-7-7---5-5-5----|
E|-3-3-3-3-------3-3-3-3--------5-5-5-5-------7-7-7---2-2-2----|

Guitar 2
E|-------------------------------------------------------------|
B|----------------------------------------------------8-8-10---|
G|-5-5-5-5-------5-5-5-5--------7-7-7-7-------9-9-9---x-x-x----|
D|-x-x-x-x-------x-x-x-x--------x-x-x-x-------x-x-x---5-5-7----|
A|-3-3-3-3-------3-3-3-3--------5-5-5-5-------7-7-7------------|
E|-------------------------------------------------------------|

Guitar 1
E|-------------------------------------------------------------|
B|-------------------------------------------------------------|
G|-5-5-5-5-------5-5-5-5--------7-7-7-7-------9-9-9------------|
D|-5-5-5-5-------5-5-5-5--------7-7-7-7-------9-9-9---4-4-4----|
A|-3-3-3-3-------3-3-3-3--------5-5-5-5-------7-7-7---5-5-5----|
E|-3-3-3-3-------3-3-3-3--------5-5-5-5-------7-7-7---2-2-2----|

Guitar 2
E|-------------------------------------------------------------|
B|-15----15--15--15----15--15---10----10--10--12--12--13--13---|
G|---1212--12--12--1212--12--12---1212--12--12--12--12--12--12-|
D|-------------------------------------------------------------|
A|-------------------------------------------------------------|
E|-------------------------------------------------------------|

Guitar 1
E|-------------------------------------------------------------|
B|-------------------------------------------------------------|
G|-5-5-5-5-------5-5-5-5--------7-7-7-7-------9-9-9------------|
D|-5-5-5-5-------5-5-5-5--------7-7-7-7-------9-9-9---4-4-4----|
A|-3-3-3-3-------3-3-3-3--------5-5-5-5-------7-7-7---5-5-5----|
E|-3-3-3-3-------3-3-3-3--------5-5-5-5-------7-7-7---2-2-2----|

Guitar 2
E|-------------------------------------------------------------|
B|-15----15--15--15-----15--15--12----12--12--10----10----10---|
G|---1212--12--12---1212--12--12--1212--12--12--1212--1212--12-|
D|-------------------------------------------------------------|
A|-------------------------------------------------------------|
E|-------------------------------------------------------------|





                  3.  shrink the world
-----------------------------------------------------------------------

Tuning-{e b g d A D}
gUITAR3=VIOLIN
Intro Chorus-

If I could then I'd shrink the world tonight so that I would find you and me inside.


      
|--------------------------------------------------------|
|--------------------------------------------------------|
|-76577777777-7657777777777-7657777777777-7657777777777--|
|-77777777777-7777777777777-7777777777777-7777777777777--|
|-55555555555-5555555555555-5555555555555-5555555555555--|
|--------------------------------------------------------|


Intro Riff
Guitar 1&2

|----------------------------------------------|
|----------------------------------------------|
|----------------------------------------------|
|------9-9-5-5-0-2-2----0-0-7-7-5-5-0-2-2------|
|------9-9-5-5-0-2-2----0-0-7-7-5-5-0-2-2------|
|-9*---9-9-5-5-0-2-2----0-0-7-7-5-5-0-2-2------|

|----------------------------------------------|
|----------------------------------------------|
|----------------------------------------------|
|--0-0-5-5-4-4-0-2-2----0-0-7-7-5-5-0-2-2------|
|--0-0-5-5-4-4-0-2-2----0-0-7-7-5-5-0-2-2------|
|--0-0-5-5-4-4-0-2-2----0-0-7-7-5-5-0-2-2------|

Verse-
Guitar1 2x
|------------------------------------------------------------------------------|x
|------------------------------------------------------------------------------|x
|------------------------------------------------------------------------------|x
|-7-7-7-7-7-7-7-7-7-7-7-7-7-7-7-7-7-7-7-7-7-7-7-7-7-7-7-7-7-7-7-7-7-7-7-7-7----|x
|-5-5-5-5-5-5-5-5-5-5-5-5-5-5-5-5-5-5-5-5-5-5-5-5-5-5-5-5-5-5-5-5-5-5-5-5-5----|x
|------------------------------------------------------------------------------|x


Guitar2 2x
|--------------------------------------|---------------------------------------------|
|--------------------------------------|---------------------------------------------|
|--------------------------------------|---------------------------------------------|
|--------------------------------------|---------------------------------------------|
|-999999999-7777777-777777777--5555555-|-99999999-12-12-10-10-999-777-999-777-55555--|
|--------------------------------------|---------------------------------------------|


Pre Cho- I am missing you

Guitar1
|---------------------------------------|x
|---------------------------------------|x
|---------------------------------------|x
|---------------------------------------|x
|--7-7-7-7-7-7-7-7-7-7-7-7-7-7-7-7------|x
|--7-7-7-7-7-7-7-7-7-7-7-7-7-7-7-7------|x


Guitar2 
|-------------------------------------|
|-------------------------------------|
|-------------------------------------|
|-------------------------------------|
|--7-7-7-7-7-7-7-7-7-7-7-7-7-7-7-7----|
|--7-7-7-7-7-7-7-7-7-7-7-7-7-7-7-7----|


Chorus-
If I could then I'd shrink the world tonight so that I would find you and me inside. Of 
last good scene, a film that changes things. Breaks us, makes us sing, leaves us wondering.

Guitar1
|----------------------------------------------|
|----------------------------------------------|
|--7----------7--------------------------------|
|--7-7-5-5-5--7-7-5-5-5---9-7-5-5-5--9-7-5-5-5-|2x
|--5-7-5-5-5--5-7-5-5-5---9-7-5-5-5--9-7-5-5-5-|
|----7-5-5-5----7-5-5-5---9-7-5-5-5--9-7-5-5-5-|


Guitar2
|----------------------------------------------|
|----------------------------------------------|
|--7-7-7-7-7-7-7-7-7-7-7-7-7-7-7-7-7-7-7-7-7-7-|
|--7--7--7--7--7--7--7--7--7--7--7--7--7--7--7-|2x
|--5--5--5--5--5--5--5--5--5--5--5--5--5--5--5-|
|----------------------------------------------|



VIOLIN-CHORUS END
|-15-14------15-14------17-14-------|  -------------|
|------15-17-------15---------------|  -15-14-15~---|
|--------------------14-------------|  -------------|
|-----------------------------------|2X-------------|
|-----------------------------------|  -------------|
|-----------------------------------|  -------------|


Post Chorus


Guitar1 2x
|---------------------------------------|x
|---------------------------------------|x
|---------------------------------------|x
|-7-7-7-7-7-7-7-7-7-7-7-7-7-7-7-7-7-7---|x
|-5-5-5-5-5-5-5-5-5-5-5-5-5-5-5-5-5-5---|x
|---------------------------------------|x


Guitar2 2x
|--------------------------------------|
|--------------------------------------|
|--------------------------------------|
|--------------------------------------|
|-999999999-7777777-777777777--5555555-|
|--------------------------------------|


Guitar3

|---------------------------------|
|---------------------------------|
|---------------------------------|
|---------------------------------|
|---------------------------------|
|-4-4-4--2-2-2-2-2-2--0-0-0-------|


Verse2-
Guitar1 2x
|------------------------------------------------------------------------------|x
|------------------------------------------------------------------------------|x
|------------------------------------------------------------------------------|x
|-7-7-7-7-7-7-7-7-7-7-7-7-7-7-7-7-7-7-7-7-7-7-7-7-7-7-7-7-7-7-7-7-7-7-7-7-7----|x
|-5-5-5-5-5-5-5-5-5-5-5-5-5-5-5-5-5-5-5-5-5-5-5-5-5-5-5-5-5-5-5-5-5-5-5-5-5----|x
|------------------------------------------------------------------------------|x


Guitar2 2x
|--------------------------------------|---------------------------------------------|
|--------------------------------------|---------------------------------------------|
|--------------------------------------|---------------------------------------------|
|--------------------------------------|---------------------------------------------|
|-999999999-7777777-777777777--5555555-|-99999999-12-12-10-10-999-777-999-777-55555--|
|--------------------------------------|---------------------------------------------|


Guitar3

|----------------------------------------------------------|
|----------------------------------------------------------|
|----------------------------------------------------------|
|----------------------------------------------------------|2x
|----------------------------------------------------------|
|-4-4-4--2-2-2-2-2-2--0-0-0--4-4-4--2-2-2-2-2-2--0-0-0-----|

Pre Cho- I am missing you
|----------------------------------------------|
|----------------------------------------------|
|----------------------------------------------|
|----7~----------------------------------------|
|----7~----------------------------------------|
|----7~----------------------------------------|


Repeat Chorus-

VIOLIN-CHORUS END
|-15-14------15-14------17-14-------|  -------------|
|------15-17-------15---------------|  -15-14-12~---|
|--------------------14-------------|  -------------|
|-----------------------------------|2X-------------|
|-----------------------------------|  -------------|
|-----------------------------------|  -------------|

Solo-


Guitar1(not sure)

|----------------------------------------------|
|----------------------------------------------|
|----------------------------------------------|
|------9-9-5-5-0-2-2----0-0-7-7-5-5-0-2-2------|
|------9-9-5-5-0-2-2----0-0-7-7-5-5-0-2-2------|
|------9-9-5-5-0-2-2----0-0-7-7-5-5-0-2-2------|


|----------------------------------------------|
|----------------------------------------------|
|----------------------------------------------|
|------9-9-5-5-0-2-2----0-0-7-7-5-5-0-2-2------|
|------9-9-5-5-0-2-2----0-0-7-7-5-5-0-2-2------|
|------9-9-5-5-0-2-2----0-0-7-7-5-5-0-2-2------|

|----------------------------------------------|
|----------------------------------------------|
|----------------------------------------------|
|--0-0-5-5-4-4-0-2-2----0-0-5-5-4-4-0-2-2------|
|--0-0-5-5-4-4-0-2-2----0-0-5-5-4-4-0-2-2------|
|--0-0-5-5-4-4-0-2-2----0-0-5-5-4-4-0-2-2------|

|---------------------------------------------------------------|
|---------------------------------------------------------------|
|---------------------------------------------------------------|
|--0-0-5-5-4-4-0-2-2----0-0-7-7-5-5-0-2-2---0-0-5-5-4-4-0-2-2---|
|--0-0-5-5-4-4-0-2-2----0-0-7-7-5-5-0-2-2---0-0-5-5-4-4-0-2-2---|
|--0-0-5-5-4-4-0-2-2----0-0-7-7-5-5-0-2-2---0-0-5-5-4-4-0-2-2---|


|----------------------------------------------|
|----------------------------------------------|
|----------------------------------------------|
|--0-4-2-0-0-5-4-2-0-0-4-2-0-0-5-4-2-0~--------|
|--0-4-2-0-0-5-4-2-0-0-4-2-0-0-5-4-2-0~--------|
|--0-4-2-0-0-5-4-2-0-0-4-2-0-0-5-4-2-0~--------|


1.
Guitar2

 |<----------Tremolo------------->|
|--7--10-9--12-10--14-12----------|
|---------------------------------|
|---------------------------------|
|---------------------------------|
|---------------------------------|
|---------------------------------|



2.
 |<----------Tremolo------------->|
|--7--10-9--12-10--14-12----------|
|---------------------------------|
|---------------------------------|
|---------------------------------|
|---------------------------------|
|---------------------------------|


3.
|<-------REPEATED------>|

|--------------10--9----|-----------|
|--7--8--7--10----------|7-8-7-9-9b-|
|-----------------------|-----------|
|-----------------------|-----------|
|-----------------------|-----------|
|-----------------------|-----------|

                                   
Guitar3

2.
                          
|-10--10--14-12--15-14--17-|
|--------------------------|
|--------------------------|
|--------------------------|
|--------------------------|
|--------------------------|

3.
<--repeated---->           <---repeated----------|
|--15-14----12--|-15-14--|--------------15-14----|-17^-|
|--------15-----|--------|--15-17-15-17----------|-----|
|---------------|--------|-----------------------|-----|
|---------------|--------|-----------------------|-----|
|---------------|--------|-----------------------|-----|
|---------------|--------|-----------------------|-----|

Repeat Chorus-

Outro-
Guitar1 

|----------------------------------------------|
|----------------------------------------------|
|----------------------------------------------|
|------9-9-5-5-0-2-2----0-0-7-7-5-5-0-2-2------|
|------9-9-5-5-0-2-2----0-0-7-7-5-5-0-2-2------|
|------9-9-5-5-0-2-2----0-0-7-7-5-5-0-2-2------|

|----------------------------------------------|
|----------------------------------------------|
|----------------------------------------------|
|--0-0-5-5-4-4-0-2-2----0-0-7-7-5-5-0-2-2------|
|--0-0-5-5-4-4-0-2-2----0-0-7-7-5-5-0-2-2------|
|--0-0-5-5-4-4-0-2-2----0-0-7-7-5-5-0-2-2------|



G2
|----------------------------------------------|
|----------------------------------------------|
|----------------------------------------------|
|--999999999-777777777-555555555-7777777777----|
|--999999999-777777777-555555555-7777777777----|
|--999999999-777777777-555555555-7777777777----|

|----------------------------------------------|
|----------------------------------------------|
|----------------------------------------------|
|--999999999-777777777-555555555-7777777777----|
|--999999999-777777777-555555555-7777777777----|
|--999999999-777777777-555555555-7777777777----|


VIOLIN-

|-15-14---------17r-----|
|------15---------------|
|--------15-------------|
|-----------------------|
|-----------------------|
|-----------------------|


End w/
G1
|----------------------------------------------|
|----------------------------------------------|
|----------------------------------------------|
|--9---0--0--0--0~-----------------------------|
|--9---0--0--0--0~----END----------------------|
|--9---0--0--0--0~-----------------------------|


G2
|----------------------------------------------|
|----------------------------------------------|
|------7--7--7--7------------------------------|
|--9---7--7--7--7~-----------------------------|
|--9---5--5--5--5~----END----------------------|
|--9-------------~-----------------------------|














                           4.keeper

Tuning -e b g d A D
G1-Ryan Mendez
G2-Ryan Key

Intro-
1.
Guitar1
|----------------9-----10----------------9------10-------------------|
|--------7------------------------7---------------------8-------8----|
|--------------------------------------------------------------------|
|---0-------0-------0-------0-------0-------0--------0-------0-------|2x
|--------------------------------------------------------------------|
|--------------------------------------------------------------------|


2.
Guitar1
|----------------9-----10----------------9------10-------------------|
|--------7------------------------7---------------------8-------8----|
|--------------------------------------------------------------------|
|---0-------0-------0-------0-------0-------0--------0-------0-------|2x
|--------------------------------------------------------------------|
|--------------------------------------------------------------------|

Guitar2
|--------------------------------------------------|  |------|
|--------------------------------------------------|  |------|
|--7777777--7777777---777777777777777--------------|  |--7---|
|--7777777--7777777---777777777777777--------------|2x|--7---|
|--5555555--xxxxxxx---xxxxxxxxxxxxxxx--------------|  |--5---|
|-----------7777777---555555555555555--------------|  |------|


Verse-
Guitar

|-----------------------------------------------------|
|-----------------------------------------------------|  
|----7777-7777-7777-7777---7777-7777-7777-7777--------| 
|----7777-7777-7777-7777---7777-7777-7777-7777--------|2x
|----5555-5555-xxxx-xxxx---xxxx-xxxx-xxxx-xxxx--------|  
|--------------7777-7777---5555-5555-5555-5555--------| 


Post chorus

Guitar1
|--------------------------------------|
|--------------------------------------|
|-7-7-7-7-7-7-7-7-7-7-7-7-7-7-7-7-7-7--|
|-x-x-x-x-x-x-x-x-x-x-x-x-x-x-x-x-x-x--|
|-5-5-5-5-5-5-5-5-5-5-5-5-5-5-5-5-5-5--|
|--------------------------------------|

Guitar2
|--------------------------------------|
|--------------------------------------|
|-7-7-7-7-7-7-7-7-7-7-7-7-7-7-7-7-7-7--|
|-7-7-7-7-7-7-7-7-7-7-7-7-7-7-7-7-7-7--|
|-5-5-5-5-5-5-5-5-5-5-5-5-5-5-5-5-5-5--|
|--------------------------------------|




Chorus




G1

|---------------------------------------------------------|
|---------------------------------------------------------|
|-7777777777777777-77777777777777777---11-12-11-9-7777777-|
|-xxxxxxxxxxxxxxxx-xxxxxxxxxxxxxxxxx---x--x--x--x-xxxxxxx-|2x
|-5555555555555555-55555555555555555---9--10-9--7-5555555-|
|---------------------------------------------------------|



G2

|-------------------------------------------------------------|
|-------------------------------------------------------------|
|--7777777777777777-7777777777777777-44444444-55555555--------|
|--7777777777777777-7777777777777777-44444444-55555555--------|2x
|--5555555555555555-5555555555555555-22222222-33333333--------|
|-------------------5555555555555555--------------------------|


verse2

Guitar1
|----------------9-----10----------------9------10-------------------|
|--------7------------------------7---------------------8-------8----|
|--------------------------------------------------------------------|
|---0-------0-------0-------0-------0-------0--------0-------0-------|2x
|--------------------------------------------------------------------|
|--------------------------------------------------------------------|



Pre-
Guitar1
|--------------------------------------|
|--7--8--7---8--7---8---7---8---7--8---|
|--------------------------------------|
|--------------------------------------|
|--------------------------------------|
|--------------------------------------|



Guitar2
|--------------------------------------|
|--------------------------------------|
|-7-7-7-7-7-7-7-7-7-7-7-7-7-7-7-7-7-7--|
|-7-7-7-7-7-7-7-7-7-7-7-7-7-7-7-7-7-7--|
|-5-5-5-5-5-5-5-5-5-5-5-5-5-5-5-5-5-5--|
|--------------------------------------|

Repeat Chorus


Then


Guitar1
|----------------9-----10----------------9------10-------------------|
|--------7------------------------7---------------------8-------8----|
|--------------------------------------------------------------------|
|---0-------0-------0-------0-------0-------0--------0-------0-------|5x
|--------------------------------------------------------------------|
|--------------------------------------------------------------------|

G2
|-----------------------------------|  |--------------------|
|-----------------------------------|  |--------------------|
|-7777777---------------------------|  |--------------------|
|-7777777-7777777-9999999--5555555--|2x|-2222222-4444444-5~-|
|-5555555-7777777-9999999--5555555--|  |-2222222-4444444-5~-|
|---------7777777-9999999--5555555--|  |-2222222-4444444-5~-|

repeat chorus-


bridge

 
G1
|--many times-----|
|-----------------|-----------------------------------|
|-----------------|-----------------------------------|
|-7---11--14---11-|--11--9---7----7-7-7-7-7-7-7-7-----|
|-x---x---x----x--|--x-s-x-s-x----x-x-x-x-x-x-x-x-----|
|-5---9---12---9--|--9---7---5----5-5-5-5-5-5-5-5-----|
|-----------------|-----------------------------------|

|--many times-----|
|-----------------|-----------------------------------|
|-----------------|-----------------------------------|
|-7---11--14---11-|--11-12-11-9-7---11-12-11-9-7---7~-|
|-x---x---x----x--|--x--x--x--x-x---x--x--x--x-x---x--|
|-5---9---12---9--|--9--10-9--7-5---9--10-9--7-5---5~-|
|-----------------|-----------------------------------|

G2
|-------------------------------------------------------------|  
|-------------------------------------------------------------|  
|-7-7-7-7-7-7-7-7-7-7-7-7-7-7-7-7-7-7-7-7-7-7-7-7-7-7-7-------|
|-7-7-7-7-7-7-7-7-7-7-7-7-7-7-7-7-7-7-7-7-7-7-7-7-7-7-7-------|
|-5-5-5-5-5-5-5-5-5-5-5-5-5-5-5-5-5-5-5-5-5-5-5-5-5-5-5-------|
|-------------------------------------------------------------| 

End with

Guitar1
|----------------9-----10----------------9------10-------------------|
|--------7------------------------7---------------------8-------8----|
|--------------------------------------------------------------------|
|---0-------0-------0-------0-------0-------0--------0-------0-------|
|--------------------------------------------------------------------|
|--------------------------------------------------------------------|


|--------------------------------------|
|--7--8--7---8--7---8---7---8---7--8---|
|--------------------------------------|
|--------------------------------------|
|--------------------------------------|







---------------------------------------------------------------------------
                                  5.light up the sky
---------------------------------------------------------------------------

Tuning-{e b g d A E}

Intro-
Guitar1
|-------------------------------------------------|
|-------------------------------------------------|
|-5-5-5-55-5-5-5-555--5-5-5-55-555-----555--------|
|-------------------------------------------------|
|-------33-5-5-5------------35--------------------|
|-5-5-5----------333--5-5-5----333-----333--------|

Verse1-
Guitar1
|----------------------------------------------|
|----------------------------------------------|
|-5-5-5-55-5-5-5-555--5-5-5-55-5-5-5-555---555-|
|----------------------------------------------|2x
|-------33-5-5-5------------33-5-5-5-----------|
|-5-5-5----------333--5-5-5----------333---333-|



Guitar2
|----------------------------------------------|
|----------------------------------------------|
|----------------------------------------------|
|----------------------------------------------|2x
|-------33-5-5-5------------33-5-5-5-----------|
|-5-5-5----------333--5-5-5---------333---333--|




Rerfrain-   
Guitar1      
|------------------------------------------------|
|------------------------------------------------|
|-5-5-5-5-5-5-5-5---555--5-5-5-5-5--5-5-5---555--|
|------------------------------------------------|
|-------3-5--------------------3-5---------------|
|-5-5-5-----3-3-3---333--5-5-5------3-3-3---333--|

Guitar2
|------------------------------------------------|
|------------------------------------------------|
|------------------------------------------------|
|------------------------------------------------|
|-------3-5--------------------3-5---------------|
|-5-5-5-----3-3-3---333--5-5-5------3-3-3---333--|


Guitar1
|------------------------------------------------|
|------------------------------------------------|
|-5-5-5-5-5-5-5-5---555--5-5-5-5-5--5-5-5---555--|
|------------------------------------------------|
|-------3-5--------------------3-5---------------|
|-5-5-5-----3-3-3---333--5-5-5------3-3-3---333--|

Guitar2
|--------------------------------------------|
|--------------------------------------------|
|--------------------------------------------|
|--------------------------------------------|
|-------3-5--------------------3-5--55555555-|
|-5-5-5-----3-3-3---333--5-5-5------33333333-|



Chorus-

Guitars 1 & 2-
|--------------------------------------------|
|--------------------------------------------|
|--------------------------------------------|
|--------------------------------------------|2x
|-33333333-333333333-555555555-33333333------|
|-00000000-111111111-333333333-11111111------|

Guitar 3-violin
|---8-7-8-----8-7-8-----8-7-8--10-12-10--87-----|
|-8------8--8-------8-8---------------------8---|
|-----------------------------------------------|
|-----------------------------------------------|2x
|-----------------------------------------------|
|-----------------------------------------------|


Continued...
Guitar1
|-------------------------------------------------|
|-------------------------------------------------|
|-5-5-5-55-5-5-5-555--5-5-5-55-555-----555---5----|
|-------------------------------------------------|
|-------33-5-5-5------------35--------------------|
|-5-5-5----------333--5-5-5----333-----333---5~---|


Guitar2
|-------------------------------------------------|
|-------------------------------------------------|
|-------------------------------------------------|
|-------------------------------------------------|
|-------33-5-5-5------------35--------------------|
|-5-5-5----------333--5-5-5----333-----333---5~---|


Verse-

Guitar3=violin
|-----------------------|
|-----------------------|
|-9~-p5h7p5--5p4h5--/2~-|
|-----------------------|2x
|-----------------------|
|-----------------------|

Rerfrain 3X    
Guitar1      
|------------------------------------------------|
|------------------------------------------------|
|-5-5-5-55--5-5-5---555--5-5-5-5-5--5-5-5---555--|
|------------------------------------------------|
|-------3-5--------------------3-5---------------|
|-5-5-5-----3-3-3---333--5-5-5------3-3-3---333--|


Guitar2
|------------------------------------------------|
|------------------------------------------------|
|------------------------------------------------|
|------------------------------------------------|
|-------3-5--------------------3-5---------------|
|-5-5-5-----3-3-3---333--5-5-5------3-3-3---333--|


Guitar1
|-------------------------------------------------|
|-------------------------------------------------|
|------5-5-5-5-5-5-5-5---555--5-5-5-5-5--55555555-|
|-------------------------------------------------|
|-xxxxx------3-5--------------------3-5-----------|
|-xxxxx5-5-5-----3-3-3---333--5-5-5------33333333-|

Guitar2
|-------------------------------------------------|
|-------------------------------------------------|
|-------------------------------------------------|
|-------------------------------------------------|
|-xxxxx------3-5--------------------3-5--55555555-|
|-xxxxx5-5-5-----3-3-3---333--5-5-5------33333333-|

Chorus-
1.
Guitars 1& 2
|--------------------------------------------|
|--------------------------------------------|
|--------------------------------------------|
|--------------------------------------------|2x
|-33333333-333333333-555555555-33333333------|
|-00000000-111111111-333333333-11111111------|

Guitar 3-violin
|---8-7-8-----8-7-8-----8-7-8--10-12-10--87-----|
|-8------8--8-------8-8---------------------8---|
|-----------------------------------------------|
|-----------------------------------------------|2x
|-----------------------------------------------|
|-----------------------------------------------|


2.

Guitar 1
|--------------------------------------------|
|--------------------------------------------|
|--------------------------------------------|
|--------------------------------------------|2x
|-33333333-333333333-555555555-33333333------|
|-00000000-111111111-333333333-11111111------|

Guitar 2
|-------------------10------------------10---|
|----1313------1313-----1313-------1313------|
|-12-----12--12-------12----12--12-----------|
|--------------------------------------------|Repeated xxx
|--------------------------------------------|
|--------------------------------------------|


Guitar 3-violin
|---8-7-8-----8-7-8-----8-7-8--10-12-10--87-----|
|-8------8--8-------8-8---------------------8---|
|-----------------------------------------------|
|-----------------------------------------------|2x
|-----------------------------------------------|
|-----------------------------------------------|




Continued ...


Bridge-PM

Guitar1
|----------------------------------------|
|----------------------------------------|
|----------------------------------------|
|----------------------------------------|2x
|-7777777-5555555-33333333-33333333------|
|-5555555-3333333-00000000-11111111------|

Guitar1
|------------------------------------------|
|------------------------------------------|
|------------------------------------------|
|------------------------------------------|2x
|-3333333-3333333-77777777-555555555-------|
|-1111111-0000000-55555555-333333333-------|

Continued...
|------------------------------------------|
|------------------------------------------|
|------------------------------------------|
|------------------------------------------|2x
|-55555555-33333333-33333333--33333333-----|
|-33333333-11111111-00000000--11111111-----|



Guitar 1
|--------------------------------------------|
|--------------------------------------------|
|--------------------------------------------|
|--------------------------------------------|2x
|-33333333-333333333-555555555-33333333------|
|-00000000-111111111-333333333-11111111------|


Chorus-
1.
Guitars 1& 2
|--------------------------------------------|
|--------------------------------------------|
|--------------------------------------------|
|--------------------------------------------|2x
|-33333333-333333333-555555555-33333333------|
|-00000000-111111111-333333333-11111111------|

Guitar 3-violin
|---8-7-8-----8-7-8-----8-7-8--10-12-10--87-----|
|-8------8--8-------8-8---------------------8---|
|-----------------------------------------------|
|-----------------------------------------------|2x
|-----------------------------------------------|
|-----------------------------------------------|


2.

Guitar 1
|--------------------------------------------|
|--------------------------------------------|
|--------------------------------------------|
|--------------------------------------------|2x
|-33333333-333333333-555555555-33333333------|
|-00000000-111111111-333333333-11111111------|

Guitar 2
|-------------------10------------------10---|
|----1313------1313-----1313-------1313------|
|-12-----12--12-------12----12--12-----------|
|--------------------------------------------|Repeated xxx
|--------------------------------------------|
|--------------------------------------------|


Guitar 3-violin
|---8-7-8-----8-7-8-----8-7-8--10-12-10--87-----|
|-8------8--8-------8-8---------------------8---|
|-----------------------------------------------|
|-----------------------------------------------|2x
|-----------------------------------------------|
|-----------------------------------------------|

Outro-
Guitar1
|-------------------------------------------------|
|-------------------------------------------------|
|-5-5-5-55-5-5-5-555--5-5-5-55-555-----555--------|
|-------------------------------------------------|
|-------33-5-5-5------------35--------------------|
|-5-5-5----------333--5-5-5----333-----333--------|

Guitar2
|-------------------------------------------------|
|-------------------------------------------------|
|-------------------------------------------------|
|-------------------------------------------------|
|-------33-5-5-5------------35--------------------|
|-5-5-5----------333--5-5-5----333-----333--------|

Guitar1
|----------------------------------------|
|----------------------------------------|
|-5-5-5-55-5-5-5-555--5-5-5-55--5--------|
|----------------------------------------|
|-------33-5-5-5------------35-----------|
|-5-5-5----------333--5-5-5-----3~-------|


Guitar2
|----------------------------------------|
|----------------------------------------|
|----------------------------------------|
|----------------------------------------|
|-------33-5-5-5------------35-----------|
|-5-5-5----------333--5-5-5-----3~-------|


-----------------------------------------------------------------------------
                         6.SHAdows and regrets
-----------------------------------------------------------------------------

tuning- standard

"Shadows And Regrets"
intro-F

GUITAR1
|-1-11-1-11-1-111-11-11-1-11--------|
|-1-11-1-11-1-111-11-11-1-11--------|
|-2-22-2-22-2-222-22-22-2-22--------|
|-3-33-3-33-3-333-33-33-3-33--------|
|-3-33-3-33-3-333-33-33-3-33--------|
|-1-11-1-11-1-111-11-11-1-11--------|

VERSE-2X
GUITAR1
  F            C/E           Dm               Bb
|-1-11-1-11-1-100-00-00-0-00-5-55-5-55-5-555-1-11-1-11-11-1-|
|-1-11-1-11-11-11-11-11-1-11-6-66-6-66-6-666-2-22-2-22-22-2-|
|-2-22-2-22-22-00-00-00-0-00-7-77-7-77-7-777-3-33-3-33-33-3-|
|-3-33-3-33-33-33-33-33-3-33-7-77-7-77-7-777-3-33-3-33-33-3-|
|-3-33-3-33-33-33-33-33-3-33-5-55-5-55-5-555-1-11-1-11-11-1-|
|-1-11-1-11-11-00-00-00-0-00--------------------------------|

GUITAR1
  F           Gm           Dm               Bb
|-1-11-1-11-11-33-33-33-3-33-5-55-5-55-5-555-1-11-1-11-11-1-|
|-1-11-1-11-11-33-33-33-3-33-6-66-6-66-6-666-2-22-2-22-22-2-|
|-2-22-2-22-22-44-44-44-4-44-7-77-7-77-7-777-3-33-3-33-33-3-|
|-3-33-3-33-33-55-55-55-5-55-7-77-7-77-7-777-3-33-3-33-33-3-|
|-3-33-3-33-33-55-55-55-5-55-5-55-5-55-5-555-1-11-1-11-11-1-|
|-1-11-1-11-11-33-33-33-3-33--------------------------------|




CHORUS-
GUITAR1
|--5-55-5-55-5-555-1-11-1-11-11-1-1-11-1-11-11-XX-XX-XX-X-XX-|
|--6-66-6-66-6-666-2-22-2-22-22-2-1-11-1-11-11-XX-XX-XX-X-XX-|
|--7-77-7-77-7-777-3-33-3-33-33-3-2-22-2-22-22-55-55-55-5-55-|
|--7-77-7-77-7-777-3-33-3-33-33-3-3-33-3-33-33-55-55-55-5-55-|2X
|--5-55-5-55-5-555-1-11-1-11-11-1-3-33-3-33-33-33-33-33-3-33-|
|---------------------------------1-11-1-11-11---------------|

       Dm          Bb
When we were only kids 
       F            C
And we were best of friends
       Dm          Bb
And we hoped for the best
       F            C
And let go of the rest 


INTERLUDE-
GUITAR1
  F            C/E           Dm               Bb
|-1-11-1-11-1-100-00-00-0-00-5-55-5-55-5-555-1-11-1-11-11-1-|
|-1-11-1-11-11-11-11-11-1-11-6-66-6-66-6-666-2-22-2-22-22-2-|
|-2-22-2-22-22-00-00-00-0-00-7-77-7-77-7-777-3-33-3-33-33-3-|
|-3-33-3-33-33-33-33-33-3-33-7-77-7-77-7-777-3-33-3-33-33-3-|
|-3-33-3-33-33-33-33-33-3-33-5-55-5-55-5-555-1-11-1-11-11-1-|
|-1-11-1-11-11-00-00-00-0-00--------------------------------|

GUITAR2 2X

|-XX-XXXX-XX-XXXX-XXXX-XX-XXXX-XX-XXXX-XXXX-X-XX-X-XX-X-XXX-X-XX-X-XX-XX-X-|
|-XX-XXXX-XX-XXXX-XXXX-XX-XXXX-XX-XXXX-XXXX-X-XX-X-XX-X-XXX-X-XX-X-XX-XX-X-|
|-XX-XXXX-XX-XXXX-XXXX-XX-XXXX-XX-XXXX-XXXX-7-77-7-77-7-777-3-33-3-33-33-3-|
|-15-1515-15-1515-1515-15-1515-15-1515-1515-7-77-7-77-7-777-3-33-3-33-33-3-|
|-15-1515-15-1515-1515-15-1515-15-1515-1515-5-55-5-55-5-555-1-11-1-11-11-1-|
|-13-1313-13-1313-1313-12-1212-12-1212-1212--------------------------------|



VERSE2

GUITAR1 DO VERSE-


GUITAR2- 2X

|-XX-XXXX-XX-XXXX-XXXX-XX-XXXX-XX-XXXX-XXXX-X-XX-X-XX-X-XXX-X-XX-X-XX-XX-X-|
|-XX-XXXX-XX-XXXX-XXXX-XX-XXXX-XX-XXXX-XXXX-X-XX-X-XX-X-XXX-X-XX-X-XX-XX-X-|
|-XX-XXXX-XX-XXXX-XXXX-XX-XXXX-XX-XXXX-XXXX-7-77-7-77-7-777-3-33-3-33-33-3-|
|-15-1515-15-1515-1515-15-1515-15-1515-1515-7-77-7-77-7-777-3-33-3-33-33-3-|
|-15-1515-15-1515-1515-15-1515-15-1515-1515-5-55-5-55-5-555-1-11-1-11-11-1-|
|-13-1313-13-1313-1313-12-1212-12-1212-1212--------------------------------|

|-XX-XXXX-XX-XXXX-XXXX-XX-XXXX-XX-XXXX-XXXX-X-XX-X-XX-X-XXX-X-XX-X-XX-XX-X-|
|-XX-XXXX-XX-XXXX-XXXX-XX-XXXX-XX-XXXX-XXXX-X-XX-X-XX-X-XXX-X-XX-X-XX-XX-X-|
|-XX-XXXX-XX-XXXX-XXXX-XX-XXXX-XX-XXXX-XXXX-7-77-7-77-7-777-3-33-3-33-33-3-|
|-15-1515-15-1515-1515-17-1717-17-1717-1717-7-77-7-77-7-777-3-33-3-33-33-3-|
|-15-1515-15-1515-1515-17-1717-17-1717-1717-5-55-5-55-5-555-1-11-1-11-11-1-|
|-13-1313-13-1313-1313-15-1515-15-1515-1515--------------------------------|




CHORUS2-

GUITAR1
|--5-55-5-55-5-555-1-11-1-11-11-1-1-11-1-11-11-XX-XX-XX-X-XX-|
|--6-66-6-66-6-666-2-22-2-22-22-2-1-11-1-11-11-XX-XX-XX-X-XX-|
|--7-77-7-77-7-777-3-33-3-33-33-3-2-22-2-22-22-55-55-55-5-55-|
|--7-77-7-77-7-777-3-33-3-33-33-3-3-33-3-33-33-55-55-55-5-55-|3X
|--5-55-5-55-5-555-1-11-1-11-11-1-3-33-3-33-33-33-33-33-3-33-|
|---------------------------------1-11-1-11-11---------------|

GUITAR2

|--X-XX-X-XX-X-XXX-X-XX-X-XX-XX-X-X-XX-X-XX-XX-XX-XX-XX-X-XX-|
|--X-XX-X-XX-X-XXX-X-XX-X-XX-XX-X-X-XX-X-XX-XX-XX-XX-XX-X-XX-|
|--7-77-7-77-7-777-3-33-3-33-33-3-2-22-2-22-22-55-55-55-5-55-|
|--7-77-7-77-7-777-3-33-3-33-33-3-3-33-3-33-33-55-55-55-5-55-|3X
|--5-55-5-55-5-555-1-11-1-11-11-1-3-33-3-33-33-33-33-33-3-33-|
|---------------------------------1-11-1-11-11---------------|

VIOLIN-
|-13-10-12-13--10-12-13---10-12-13--10--13~-----|
|-----------------------------------------------|
|-----------------------------------------------|
|-----------------------------------------------|
|-----------------------------------------------|
|-----------------------------------------------|

Interlude2 -(not sure) Bb Gm Bb F
BOTH GUITARS
|-----------------------------------------------------------|
|-----------------------------------------------------------|
|-3-33-3-33-3-333-33-33-3-33-3-33-3-33-3-333-33-33-3-33-----|
|-3-33-3-33-3-333-33-33-3-33-5-55-5-55-5-555-55-55-5-55-----|
|-1-11-1-11-1-111-11-11-1-11-5-55-5-55-5-555-55-55-5-55-----|
|----------------------------3-33-3-33-3-333-33-33-3-33-----|

|-----------------------------------------------------------|
|-----------------------------------------------------------|
|-3-33-3-33-3-333-33-33-3-33--------------------------------|
|-3-33-3-33-3-333-33-33-3-33-3-33-3-33-3-333-33-33-3-33-----|
|-1-11-1-11-1-111-11-11-1-11-3-33-3-33-3-333-33-33-3-33-----|
|----------------------------1-11-1-11-1-111-11-11-1-11-----|


BRIDGE-(not sure)]

Dm               Bb
Everything has changed
 Gm              
Faces stay the same
 Bb
Everything has changed
Gm               C
Faces stay the same

|--------------------------------------------------|
|--------------------------------------------------|
|-7-77-7-77-7-777--3-33-3-33-3-33------------------|
|-7-77-7-77-7-777--3-33-3-33-3-33--5-55-5-55-5-555-|
|-5-55-5-55-5-555--1-11-1-11-1-11--5-55-5-55-5-555-|
|----------------------------------3-33-3-33-3-333-|

|-----------------------------------------------------|
|-----------------------------------------------------|
|---3-33-3-33-3-33------------------------------------|
|---3-33-3-33-3-33--5-55-5-55-5-555-5-55-5-55-5-555---|
|---1-11-1-11-1-11--5-55-5-55-5-555-3-33-3-33-3-333---|
|-------------------3-33-3-33-3-333-------------------|




Chorus-
GUITAR1
|--5-55-5-55-5-555-1-11-1-11-11-1-1-11-1-11-11-XX-XX-XX-X-XX-|
|--6-66-6-66-6-666-2-22-2-22-22-2-1-11-1-11-11-XX-XX-XX-X-XX-|
|--7-77-7-77-7-777-3-33-3-33-33-3-2-22-2-22-22-55-55-55-5-55-|
|--7-77-7-77-7-777-3-33-3-33-33-3-3-33-3-33-33-55-55-55-5-55-|2X
|--5-55-5-55-5-555-1-11-1-11-11-1-3-33-3-33-33-33-33-33-3-33-|
|---------------------------------1-11-1-11-11---------------|

GUITAR1
|--5-55-5-55-5-555-1-11-1-11-11-1-1-11-1-11-11-XX-XX-XX-X-XX-|
|--6-66-6-66-6-666-2-22-2-22-22-2-1-11-1-11-11-XX-XX-XX-X-XX-|
|--7-77-7-77-7-777-3-33-3-33-33-3-2-22-2-22-22-55-55-55-5-55-|
|--7-77-7-77-7-777-3-33-3-33-33-3-3-33-3-33-33-55-55-55-5-55-|4X
|--5-55-5-55-5-555-1-11-1-11-11-1-3-33-3-33-33-33-33-33-3-33-|
|---------------------------------1-11-1-11-11---------------|


GUITAR2

|--X-XX-X-XX-X-XXX-X-XX-X-XX-XX-X-X-XX-X-XX-XX-XX-XX-XX-X-XX-|
|--X-XX-X-XX-X-XXX-X-XX-X-XX-XX-X-X-XX-X-XX-XX-XX-XX-XX-X-XX-|
|--7-77-7-77-7-777-3-33-3-33-33-3-2-22-2-22-22-55-55-55-5-55-|
|--7-77-7-77-7-777-3-33-3-33-33-3-3-33-3-33-33-55-55-55-5-55-|4X
|--5-55-5-55-5-555-1-11-1-11-11-1-3-33-3-33-33-33-33-33-3-33-|
|---------------------------------1-11-1-11-11---------------|


end with
GUITAR1
|------------------------------1~-----|
|------------------------------1~-----|
|-3-33-3-33-3-333-33-33-3-33---2~-----|
|-3-33-3-33-3-333-33-33-3-33---3~-----|
|-1-11-1-11-1-111-11-11-1-11---3~-----|
|------------------------------1~-----|


-------------------------------------------------------------------------------
			7. FIVE BECOMES FOUR - Yellowcard
-------------------------------------------------------------------------------
Tabbed by: Anthinator
Email: anthinator@hotmail.com

Tuning: E A D G b e



-=GUITAR ONE=- (Ryan Key)


INTRO: 2X
e|-----------------|
B|---1---1---1---1-|
G|-----------------|
D|-2---2---2---2---|
A|-----------------|
E|-----------------|


INTRO PART ONE: "Needed some time so I could find..."
e|---------------------------------------------------------------------------|
B|---1---1---1---1---1---1---1---1---1---1---1---1---1---1---1---1-----------|
G|---------------------------------0---0---0---0-----------------------------|
D|-2---2---2---2---3---3---3---3---------------------------------------------|
A|-------------------------------------------------3---3---2---2-------------|
E|---------------------------------------------------------------------------|

e|---------------------------------------------------------------------------|
B|---1---1---1---1---1---1---1---1---1---1---1---1---1---1---1---1-----------|
G|---------------------------------0---0---0---0---0---0---0---0-------------|
D|-2---2---2---2---3---3---3---3---------------------------------------------|
A|---------------------------------------------------------------------------|
E|---------------------------------------------------------------------------|


INTRO PART TWO: 2X
e|-------------------------------------------------------------------------------|
B|-------------------------------------------------------8----8----8----8----8---|
G|----------------------------------------------------55---55---55---55---55---5-|
D|-7777777777777777-2222222222222222-3333333333333333----------------------------|
A|-7777777777777777-3333333333333333-3333333333333333----------------------------|
E|-5555555555555555-0000000000000000-1111111111111111----------------------------|
						      ..   ..   ..   ..   ..

VERSE: 4X "I'm ridin' it out; this storm that you brought in..."
e|---------------------------------------------------------------------------|
B|---1---1---1---1---1---1---1---1---1---1---1---1---1---1---1---1-----------|
G|-2---2---2---2-----------------------------------0---0---0---0-------------|
D|---------------------------------3---3---3---3-----------------------------|
A|-----------------3---3---3---3---------------------------------------------|
E|---------------------------------------------------------------------------|


CHORUS: 2X "Did you run away? Did you fall apart?"
e|---------------------------------------------------------------------------|
B|---------------------------------------------------------------------------|
G|---------------------------------------------------------------------------|
D|-7777777777777777-2222222222222222-3333333333333333-5555555555555555-------|
A|-7777777777777777-3333333333333333-3333333333333333-5555555555555555-------|
E|-5555555555555555-0000000000000000-1111111111111111-3333333333333333-------|


VERSE 2: 4X "Try and put aside you're history and pride..."
e|---------------------------------------------------------------------------|
B|---1---1---1---1---1---1---1---1---1---1---1---1---1---1---1---1-----------|
G|-2---2---2---2-----------------------------------0---0---0---0-------------|
D|---------------------------------3---3---3---3-----------------------------|
A|-----------------3---3---3---3---------------------------------------------|
E|---------------------------------------------------------------------------|


PRE-CHORUS:
e|-----------------|
B|-----------------|
G|-5~--------------|
D|-x---------------|
A|-3~--------------|
E|-----------------|


CHORUS: 2X "Did you run away? Did you fall apart?"
e|---------------------------------------------------------------------------|
B|---------------------------------------------------------------------------|
G|---------------------------------------------------------------------------|
D|-7777777777777777-2222222222222222-3333333333333333-5555555555555555-------|
A|-7777777777777777-3333333333333333-3333333333333333-5555555555555555-------|
E|-5555555555555555-0000000000000000-1111111111111111-3333333333333333-------|


BRIDGE: 5X "Remember the lie, never said I..."
e|---------------------------------------------------------------------------|
B|---------------------------------------------------------------------------|
G|---------------------------------------------------------------------------|
D|-2222-------------5555-----------------------------------------------------|
A|-3333-------------7777-----------------------------------------------------|
E|-1111-------------5555-----------------------------------------------------|


BRIDGE CONT'D: 3X "Just tell me why"	    4TH TIME
e|-------------------------------------|-------------------------------------|
B|-------------------------------------|-------------------------------------|
G|-------------------------------------|-------------------------------------|
D|-2-22-22--3-33-33--5-55-55--7-77-77--|-3---3~------------------------------|
A|-3-33-33--3-33-33--5-55-55--7-77-77--|-3---3~------------------------------|
E|-0-00-00--1-11-11--3-33-33--5-55-55--|-1---1~------------------------------|


CHORUS: "Did you run away? Did you fall apart?"
e|---------------------------------------------------------------------------|
B|---------------------------------------------------------------------------|
G|---------------------------------------------------------------------------|
D|-7777777777777777-2222222222222222-3333333333333333-5555555555555555-------|
A|-7777777777777777-3333333333333333-3333333333333333-5555555555555555-------|
E|-5555555555555555-0000000000000000-1111111111111111-3333333333333333-------|


 "When you're all alone with a melody..."
e|-------------------------------------------------------------------------------|
B|-------------------------------------------------------8----8----8----8----8---|
G|----------------------------------------------------55---55---55---55---55---5-|
D|-7777777777777777-2222222222222222-3333333333333333----------------------------|
A|-7777777777777777-3333333333333333-3333333333333333----------------------------|
E|-5555555555555555-0000000000000000-1111111111111111----------------------------|
						      ..   ..   ..   ..   ..

OUTRO: 7X                           8TH TIME
e|-------------------------------|-------------------------------------------|
B|----8----8----8----8----8------|----8----8----8-----8\---------------------|
G|-55---55---55---55---55---5----|-55---55---55---55-------------------------|
D|-------------------------------|-------------------------------------------|
A|-------------------------------|-------------------------------------------|
E|-------------------------------|-------------------------------------------|
   ..   ..   ..   ..   ..          ..   ..   ..   ..



-=GUITAR TWO=- (Ryan Mendez)


INTRO PART TWO: 2X
e|-------------------------------------------------------------------------------|
B|-------------------------------------------------------5----5----3----3----3p1-|
G|----------------------------------------------------55---55---55---55---55-----|
D|-7777777777777777-2222222222222222-3333333333333333----------------------------|
A|-7777777777777777-3333333333333333-3333333333333333----------------------------|
E|-5555555555555555-0000000000000000-1111111111111111----------------------------|
						      ..   ..   ..   ..   ..

VERSE: 2X "It's gotta be easy to see..."
e|-------------------------------------------------------------------------------|
B|-------------------------------------------------------------------------------|
G|-55-5-5-5--22-2-2-2--44-4-4-4--99-9-77-7--55-5-5-5--22-2-2-2-44-4-4-4-4444444--|
D|-xx-x-x-x--xx-x-x-x--xx-x-x-x--xx-x-xx-x--xx-x-x-x--xx-x-x-x-xx-x-x-x-xxxxxxx--|
A|-33-3-3-3--00-0-0-0--22-2-2-2--77-7-55-5--33-3-3-3--00-0-0-0-22-2-2-2-2222222--|
E|-------------------------------------------------------------------------------|


CHORUS: 2X "Did you run away? Did you fall apart?"
e|---------------------------------------------------------------------------|
B|---------------------------------------------------------------------------|
G|---------------------------------------------------------------------------|
D|-7777777777777777-2222222222222222-3333333333333333-5555555555555555-------|
A|-7777777777777777-3333333333333333-3333333333333333-5555555555555555-------|
E|-5555555555555555-0000000000000000-1111111111111111-3333333333333333-------|


VERSE 2: 2X "The story goes nobody knows..."
e|-------------------------------------------------------------------------------|
B|-------------------------------------------------------------------------------|
G|-55-5-5-5--22-2-2-2--44-4-4-4--99-9-77-7--55-5-5-5--22-2-2-2-44-4-4-4-4444444--|
D|-xx-x-x-x--xx-x-x-x--xx-x-x-x--xx-x-xx-x--xx-x-x-x--xx-x-x-x-xx-x-x-x-xxxxxxx--|
A|-33-3-3-3--00-0-0-0--22-2-2-2--77-7-55-5--33-3-3-3--00-0-0-0-22-2-2-2-2222222--|
E|-------------------------------------------------------------------------------|


PRE-CHORUS:
e|-----------------|
B|-----------------|
G|-12~-------------|
D|-x---------------|
A|-10~-------------|
E|-----------------|


CHORUS: 2X "Did you run away? Did you fall apart?"
e|---------------------------------------------------------------------------|
B|---------------------------------------------------------------------------|
G|---------------------------------------------------------------------------|
D|-7777777777777777-2222222222222222-3333333333333333-5555555555555555-------|
A|-7777777777777777-3333333333333333-3333333333333333-5555555555555555-------|
E|-5555555555555555-0000000000000000-1111111111111111-3333333333333333-------|


BRIDGE: 5X
e|---------------------------------------------------------------------------|
B|---------------------------------------------------------------------------|
G|-9-999-9-5--7777-7--9-999-9-5--7777-7--------------------------------------|
D|-x-xxx-x-x--xxxx-x--x-xxx-x-x--xxxx-x--------------------------------------|
A|-7-777-7-3--5555-3--7-777-7-3--5555-3--------------------------------------|
E|---------------------------------------------------------------------------|


BRIDGE CONT'D: 5X
e|---------------------------------------------------------------------------|
B|---------------------------------------------------------------------------|
G|-5-55-55--7-77-77--9-99-99--5-55-55--12-1212-1212--5-55-55-7-77-77-9-99-99-|
D|-x-xx-xx--x-xx-xx--x-xx-xx--x-xx-xx--x--x-x--x-x---x-xx-xx-x-xx-xx-x-xx-xx-|
A|-3-33-33--5-55-55--7-77-77--3-33-33--10-1010-1010--3-33-33-5-55-55-7-77-77-|
E|---------------------------------------------------------------------------|



e|---------------------------------------------------------------------------|
B|---------------------------------------------------------------------------|
G|-5-55-55--7-77-77--9-99-99--5-55-55--12-12~--------------------------------|
D|-x-xx-xx--x-xx-xx--x-xx-xx--x-xx-xx--x--x----------------------------------|
A|-3-33-33--5-55-55--7-77-77--3-33-33--10-10~--------------------------------|
E|---------------------------------------------------------------------------|


CHORUS: "Did you run away? Did you fall apart?"
e|---------------------------------------------------------------------------|
B|---------------------------------------------------------------------------|
G|---------------------------------------------------------------------------|
D|-7777777777777777-2222222222222222-3333333333333333-5555555555555555-------|
A|-7777777777777777-3333333333333333-3333333333333333-5555555555555555-------|
E|-5555555555555555-0000000000000000-1111111111111111-3333333333333333-------|


  "When you're all alone with a melody..."
e|-------------------------------------------------------------------------------|
B|-------------------------------------------------------5----5----3----3----3p1-|
G|----------------------------------------------------55---55---55---55---55-----|
D|-7777777777777777-2222222222222222-3333333333333333----------------------------|
A|-7777777777777777-3333333333333333-3333333333333333----------------------------|
E|-5555555555555555-0000000000000000-1111111111111111----------------------------|
						      ..   ..   ..   ..   ..

OUTRO:
e|---------------------------------------------------------------------------|
B|----8----8----8----8----8------8----8----8----8----8-----------------------|
G|-55---55---55---55---55---5-55---55---55---55---55---5---------------------|
D|---------------------------------------------------------------------------|
A|---------------------------------------------------------------------------|
E|---------------------------------------------------------------------------|
   ..   ..   ..   ..   ..     ..   ..   ..   ..   .. 

e|---------------------------------------------------------------------------|
B|----8----8----8----8----8------5----5----3----3----3p1---------------------|
G|-55---55---55---55---55---5-55---55---55---55---55-------------------------|
D|---------------------------------------------------------------------------|
A|---------------------------------------------------------------------------|
E|---------------------------------------------------------------------------|
   ..   ..   ..   ..   ..     ..   ..   ..   ..   .. 

e|---------7----8----7----5--------------------------------------------------|
B|----8---------------------8----8----8----8----8----8-----------------------|
G|-55---55---55---55---55-----55---55---55---55---55---5---------------------|
D|---------------------------------------------------------------------------|
A|---------------------------------------------------------------------------|
E|---------------------------------------------------------------------------|
   ..   ..   ..   ..   ..     ..   ..   ..   ..   .. 

e|---------7----8----7----5--------------------------------------------------|
B|----8---------------------8----8----8----8----8\---------------------------|
G|-55---55---55---55---55-----55---55---55---55------------------------------|
D|---------------------------------------------------------------------------|
A|---------------------------------------------------------------------------|
E|---------------------------------------------------------------------------|
   ..   ..   ..   ..   ..     ..   ..   ..   ..    

----------------------------------------------------------------------
			8. Afraid - Yellowcard
----------------------------------------------------------------------

G1 -{ e b g d A E }

G2 -{ e b g d A E }

Intro-
  
G1
|-------------------------------------------------|
|-------------------------------------------------|
|-------------------------------------------------|
|-----7-----4-6-4-----4-----4-----4-----6---6-----|
|-7---7--7--7-7-7--7--7--7--7--7--7--7--7-7-7-----|
|-0------0---------0-----0-----0-----0----0-------|


|-------------------------------------------------|
|-------------------------------------------------|
|-------------------------------------------------|
|-----7-----4-6-4-----4-----4-----4---------------|
|-7---7--7--7-7-7--7--7--7--7--7--7--7--7--7------|
|-0------0---------0-----0-----0-----0---0--------|
  
Verse -2X
  
G1
|-------------------------------------------------|
|-------------------------------------------------|
|-------------------------------------------------|
|-----7-----4-6-4-----4-----4-----4-----6---6-----|
|-7---7--7--7-7-7--7--7--7--7--7--7--7--7-7-7-----|
|-0------0---------0-----0-----0-----0----0-------|


|-------------------------------------------------|
|-------------------------------------------------|
|-------------------------------------------------|
|-----7-----4-6-4-----4-----4-----4---------------|
|-7---7--7--7-7-7--7--7--7--7--7--7--7--7--7------|
|-0------0---------0-----0-----0-----0---0--------|

|-------------------------------------------------|
|-------------------------------------------------|
|-------------------------------------------------|
|-----7-----4-6-4-----4-----4-----4-----6--6------|
|-4---4--4--4-4-4--4--4--4--4--4--4--4--4--4------|
|-0------0---------0-----0-----0-----0---0--------|

|-------------------------------------------------|
|-------------------------------------------------|
|-------------------------------------------------|
|-----7-----4-6-4-----4-----4-----4---------------|
|-0---0--0--0-0-0--0--0--0--0--0--0--0--7--7------|
|-0------0---------0-----0-----0-----0---0--------|
  
Refrain-
G1
|-------------------------------------------------|
|-------------------------------------------------|
|----------------------66666666--88888888---------|
|-77777777---99999999--66666666--88888888---------|
|-77777777---99999999--44444444--66666666---------|
|-55555555---77777777-----------------------------|

G2
|----------------------|---------------------------|
|----------------------|---------------------------|
|-13131313131313131313-|-111111111111111--88888888-|
|-x-x-x-x-x-x-x-x-x-x--|-x-x-x-x-x-x-x-x--xxxxxxxx-|
|-11111111111111111111-|-9-9-9-9-9-9-9-9--66666666-|
|----------------------|---------------------------|

Chorus-
G1
|-------------------------------------------------|
|-------------------------------------------------|
|-9999999--4444444--------------------------------|
|-9999999--4444444--4444444--7777777--------------|2x
|-7777777--2222222--4444444--7777777--------------|
|-------------------2222222--5555555--------------|

  
G2
|-------------------------------------------------|
|-------------------------------------------------|
|-9999999--8888888--9999999---9999999-------------|
|-xxxxxxx--xxxxxxx--xxxxxxx---xxxxxxx-------------|2x
|-7777777--6666666--7777777---7777777-------------|
|-------------------------------------------------|
  

Guitar=Violin

|-0-4-0454-|-0-4-0-4-0-454-|-0-4-0-4-0-454-|   |-0-0-0-7--|   |--0-5-4---| 
|----------|---------------|---------------|   |----------|   |----------|
|----------|---------------|---------------|   |----------|   |----------|
|----------|---------------|---------------|2x |----------|4x |----------|
|----------|---------------|---------------|   |----------|   |----------|
|----------|---------------|---------------|   |----------|   |----------|



Interlude1
G1
|-------------------------------------------------|
|-------------------------------------------------|
|-------------------------------------------------|
|--2--2---222---2--2--2--222----------------------|2x
|--2--2---222---2--2--2--222----------------------|
|--0--0---000---0--0--0--000----------------------|


G2
|-------------------------------------------------|
|-------------------------------------------------|
|-14-13--11/-13-/11--11-11-11---13-13-13----------|
|-x--x---x---x---x---x--x--x----x--x--x-----------|
|-12-11--9-/-11-/9---9--9--9----11-11-11----------|
|-------------------------------------------------|
  
|----------------------------------------------|
|----------------------------------------------|
|-14-13--11/-13-/11--11-11-11---9-9-9----------|
|-x--x---x---x---x---x--x--x----x-x-x----------|
|-12-11--9-/-11-/9---9--9--9----7-7-7----------|
|----------------------------------------------|



Verse2 

(many strokes } heheheh...
G1 
|--------|---------|----------|-----------|
|--------|---------|----------|-----------|
|---9----|---9-----|----6-----|-----------|
|---9----|---9-----|----6-----|----7------|
|---7----|---7-----|----4-----|----7------|
|--------|---------|----------|----5------|

(many strokes } heheheh...

G2 
|--------|---------|----------|-----------|
|--------|---------|----------|-----------|
|---13---|----7----|----9-----|----9------|
|---x----|----x----|----x-----|----x------|
|---11---|----9----|----7-----|----7------|
|--------|---------|----------|-----------|


G1 
|--------|---------|----------|-----------|
|--------|---------|----------|-----------|
|---9----|---9-----|----6-----|-----------|
|---9----|---9-----|----6-----|----7------|
|---7----|---6-----|----4-----|----7------|
|--------|---------|----------|----5------|

G2
|--------|---------|----------|-----------|
|--------|---------|----------|-----------|
|---13---/----7----/----9-----|----11-----|
|---x----/----x----/----x-----|----x------|
|---11---/----9----/----7-----|----9------|
|--------|---------|----------|-----------|
  


Repeat Refrain



Chorus2
G1
|-------------------------------------------------|
|-------------------------------------------------|
|-9999999--4444444--------------------------------|
|-9999999--4444444--4444444--7777777--------------|2x
|-7777777--2222222--4444444--7777777--------------|
|-------------------2222222--5555555--------------|

  
G1

|-------------------------------------------------|
|-------------------------------------------------|
|-9999999--8888888--9999999---9999999-------------|
|-xxxxxxx--xxxxxxx--xxxxxxx---xxxxxxx-------------|
|-7777777--6666666--7777777---7777777-------------|
|-------------------------------------------------|

|-------------------------------------------------|
|-------------------------------------------------|
|-9999999--8888888--9999999---9999999-------------|
|-xxxxxxx--xxxxxxx--xxxxxxx---xxxxxxx-------------|
|-7777777--6666666--7777777---7777777-------------|
|-------------------------------------------------|
  

Violin

|-0-4-0454-|-0-4-0-4-0-454-|-0-4-0-4-0-454-|   |-0-0-0-7--|   |--0-5-4---| 
|----------|---------------|---------------|   |----------|   |----------|
|----------|---------------|---------------|   |----------|   |----------|
|----------|---------------|---------------|2x |----------|4x |----------|
|----------|---------------|---------------|   |----------|   |----------|
|----------|---------------|---------------|   |----------|   |----------|



Bridge-

G1

|-----------|-----------|------------|------------|
|-----------|-----------|------------|------------|
|-666666666-|-999999999-|------------|------------|
|-666666666-|-999999999-|-9999999999-|-4444444444-|4x
|-444444444-|-777777777-|-9999999999-|-4444444444-|
|-----------|-----------|-7777777777-|-2222222222-|
  
G2
<-Many ->|
|--------|------------------------------|
|--------|------------------------------|
|---13---|----16---14----13----11-------|
|---x----|----x--s-x---s-x---s-x--------|4x
|---11---|----14---12----11----9--------|
|--------|------------------------------|
  

Birdge2



G1
No
Distortion 
|-------------------------------------------------|
|-------------------------------------------------|
|-9999999--4444444--------------------------------|
|-9999999--4444444--4444444--7777777--------------|
|-7777777--2222222--4444444--7777777--------------|
|-------------------2222222--5555555--------------|

G2- Palm Muted
|-----------------------------------------|
|-----------------------------------------|
|---9----9-11-9----9---9---9-11-9---9-----|
|-9---9----------9---9---9--------9-------|
|-----------------------------------------|
|-----------------------------------------|

|-----------------------------------------|
|-----------------------------------------|
|---7---7-9-7------7---7---7-9-7----7-----|
|-9---9----------9---9---9--------9-------|
|-----------------------------------------|
|-----------------------------------------|

|-----------------------------------------|
|-----------------------------------------|
|---6---6-7-6------6---6---6-7-6----6-----|
|-7---7----------7---7---7--------7-------|
|-----------------------------------------|
|-----------------------------------------|

|-----------------------------------------------------------------------------|
|-----------------------------------------------------------------------------|
|---9----9-11-9----9---9---9-11-9---9---9---9-11-9--9--9--9-11-9--9--9-9-11-9-|
|-9---9----------9---9---9--------9---9---9-------9---9--9------9--9--9-------|
|-----------------------------------------------------------------------------|
|-----------------------------------------------------------------------------|

Chorus-
G1
|-------------------------------------------------|
|-------------------------------------------------|
|-9999999--4444444--------------------------------|
|-9999999--4444444--4444444--7777777--------------|2x
|-7777777--2222222--4444444--7777777--------------|
|-------------------2222222--5555555--------------|

  
G1
|-------------------------------------------------|
|-------------------------------------------------|
|-9999999--8888888--9999999---9999999-------------|
|-xxxxxxx--xxxxxxx--xxxxxxx---xxxxxxx-------------|
|-7777777--6666666--7777777---7777777-------------|
|-------------------------------------------------|

|-------------------------------------------------|
|-------------------------------------------------|
|-9999999--1111111111111------6666666---9999999---|
|-xxxxxxx--x-x-x-x-x-x-x------xxxxxxx---xxxxxxx---|
|-7777777--9-9-9-9-9-9-9------4444444---7777777---|
|-------------------------------------------------|
  
  

Violin

|-0-4-0454-|-0-4-0-4-0-454-|-0-4-0-4-0-454-|   |-0-0-0-7--|   |--0-5-4---| 
|----------|---------------|---------------|   |----------|   |----------|
|----------|---------------|---------------|   |----------|   |----------|
|----------|---------------|---------------|2x |----------|4x |----------|
|----------|---------------|---------------|   |----------|   |----------|
|----------|---------------|---------------|   |----------|   |----------|



Outro 2x
G1
|-------------------------------------------------|
|-------------------------------------------------|
|-------------------------------------------------|
|--2--2---222---2--2--2--222----------------------|2x
|--2--2---222---2--2--2--222----------------------|
|--0--0---000---0--0--0--000----------------------|


G2
|-------------------------------------------------|
|-------------------------------------------------|
|-14-13--11/-13-/11--11-11-11---13-13-13----------|
|-x--x---x---x---x---x--x--x----x--x--x-----------|
|-12-11--9-/-11-/9---9--9--9----11-11-11----------|
|-------------------------------------------------|
  
|----------------------------------------------|
|----------------------------------------------|
|-14-13--11/-13-/11--11-11-11---9-9-9----------|
|-x--x---x---x---x---x--x--x----x-x-x----------|Hold
|-12-11--9-/-11-/9---9--9--9----7-7-7----------|
|----------------------------------------------|


----------------------------------------------------------------------
			9. Date line - Yellowcard
----------------------------------------------------------------------


Intro-

Guitar1
|----------------------------------------------|
|----------------------------------------------|
|------2----0----------------------------------|
|---2----3-----2------2----3--2--0---2---------|2x
|---0-------------0-----0------------0---------|
|----------------------------------------------|

Verse-
Guitar1
|----------------------------------------------|
|----------------------------------------------|
|------2----0----------------------------------|
|---2----3-----2------2----3--2--0---2---------|8x
|---0-------------0-----0------------0---------|
|----------------------------------------------|


Refrain-

Guitar1
|----------------------------------------------|
|----------------------------------------------|
|-99999999-10101010101010-(5)-10/9\7/9-9\7/5---|
|-xxxxxxxx-x-x-x-x-x-x-x--(5)-x--x-x-x-x-x-x---|
|-77777777-8-8-8-8-8-8-8--(3)-8-/7\5/7-7\5/3---|
|----------------------------------------------|


Guitar2
|----------------------------------------------|
|----------------------------------------------|
|--------------------------5-5---5-5-55-5-5----|
|--------------------------5-5---5-5-55-5-5----|
|--------------------------3-3---3-3-33-3-3----|
|----------------------------------------------|


Guitar1
|----------------------------------------------|
|----------------------------------------------|
|-99999999-10101010101010-(5)-10/9\7/9-9\7/5---|
|-xxxxxxxx-x-x-x-x-x-x-x--(5)-x--x-x-x-x-x-x---|
|-77777777-8-8-8-8-8-8-8--(3)-8-/7\5/7-7\5/3---|
|----------------------------------------------|


Guitar2

|----------------------------------------------|
|----------------------------------------------|
|--------------------------5-5---5-5-55-5-5----|
|--------------------------5-5---5-5-55-5-5----|
|--------------------------3-3---3-3-33-3-3----|
|----------------------------------------------|



Continued...when you...

Guitar1
|---------------------------|---------------------|
|---------------------------|---------------------|
|-4/5--4/5--4/5--4/5--4/5---|--4--4--4--4--4------|
|-x-x--x-x--x-x--x-x--x-x---|--x--x--x--x--x------|
|-2/3--2/3--2/3--2/3--2/3---|--2--2--2--2--2------|
|---------------------------|---------------------|


|-----------------|------------------------------|
|-----------------|------------------------------|
|-5--5--5--5--5---|--4/5--4/5--4/5--4/5--4/5-----|
|-x--x--x--x--x---|--x-x--x-x--x-x--x-x--x-x-----|
|-3--3--3--3--3---|--2/3--2/3--2/3--2/3--2/3-----|
|-----------------|------------------------------|

int-
|----------------------------------------------|
|----------------------------------------------|
|------2----0----------------------------------|
|---2----3-----2------2----3--2--0---2---------|2x
|---0-------------0-----0------------0---------|
|----------------------------------------------|


Repeat Verse-

Refrain-


Guitar1
|----------------------------------------------|-------------|
|----------------------------------------------|-------------|
|-99999999-10101010101010-(5)-10/9\7/9-9\7/5---|-99999999----|
|-xxxxxxxx-x-x-x-x-x-x-x--(5)-x--x-x-x-x-x-x---|-xxxxxxxx----|
|-77777777-8-8-8-8-8-8-8--(3)-8-/7\5/7-7\5/3---|-77777777----|
|----------------------------------------------|-------------|

Guitar2
|----------------------------------------------|-------------|
|----------------------------------------------|-------------|
|--------------------------5-5---5-5-55-5-5----|-------------|
|--------------------------5-5---5-5-55-5-5----|-rocket-fx---|
|--------------------------3-3---3-3-33-3-3----|-------------|
|----------------------------------------------|-------------|


Chorus-

Guitar1 continuous...
|-----------------------------------------------------------------------|
|-----------------------------------------------------------------------|
|--4/5--4/5--4/5--4/5--4/5--4/5--4/5--4/5--4/5--4/5--4/5--4/5--4/5--4/5-|
|--x-x--x-x--x-x--x-x--x-x--x-x--x-x--x-x--x-x--x-x--x-x--x-x--x-x--x-x-|
|--2/3--2/3--2/3--2/3--2/3--2/3--2/3--2/3--2/3--2/3--2/3--2/3--2/3--2/3-|
|-----------------------------------------------------------------------|
Guitar2

|---------------------------------------------|
|---------------------------------------------|
|--5555555------------------------------------|
|--5555555--5555555--7777777--3333333---------|2x
|--3333333--5555555--7777777--3333333---------|
|-----------3333333--5555555--1111111---------|

Guitar3 continuous...

|---------15-15-15---------15-15-15------------|
|-13-13-13--------13-13-13--------13-13-13-13--|
|----------------------------------------------|
|----------------------------------------------|
|----------------------------------------------|
|----------------------------------------------|

Interlude-

Guitar1
|---------------------------|-------------------------------|
|---------------------------|-------------------------------|
|-4/5--4/5--4/5--4/5--4/5---|--4/5--4/5--4/5--4/5--4/5------|
|-x-x--x-x--x-x--x-x--x-x---|--x-x--x-x--x-x--x-x--x-x------|
|-2/3--2/3--2/3--2/3--2/3---|--2/3--2/3--2/3--2/3--2/3------|
|---------------------------|-------------------------------|


Guitar2

|-------------------------|---------------------------------|
|-------------------------|---------------------------------|
|-------------------------|---------------------------------|
|---------------------5-5-|-----------------------------5-5-|
|---------------------5-5-|-----------------------------5-5-|
|---------------------3-3-|-----------------------------3-3-|

Guitar1

|-------------------------|------------------------------|
|-------------------------|------------------------------|
|-4/5--4/5--4/5--4/5--4/5-|------------------------------|
|-x-x--x-x--x-x--x-x--x-x-|-7/9--7/9--7/9--7/9--7/9------|
|-2/3--2/3--2/3--2/3--2/3-|-x-x--x-x--x-x--x-x--x-x------|
|-------------------------|-5/7--5/7--5/7--5/7--5/7------|


Guitar2

|-------------------------|------------------------------|
|-------------------------|------------------------------|
|-------------------------|------------------------------|
|-5-5--5-5--5-5--5-5--5-5-|-5-5--5-5--5-5--5-5--5-5------|
|-5-5--5-5--5-5--5-5--5-5-|-5-5--5-5--5-5--5-5--5-5------|
|-3-3--3-3--3-3--3-3--3-3-|-3-3--3-3--3-3--3-3--3-3------|


Guitar1

|-------------------------|------------------------------|
|-------------------------|------------------------------|
|-4/5--4/5--4/5--4/5--4/5-|-7/9--7/9--7/9--7/9--7/9------|
|-x-x--x-x--x-x--x-x--x-x-|-x-x--x-x--x-x--x-x--x-x------|
|-2/3--2/3--2/3--2/3--2/3-|-5/7--5/7--5/7--5/7--5/7------|
|-------------------------|------------------------------|

Guitar2

|-------------------------|-------------------------------|
|-------------------------|-------------------------------|
|-------------------------|-------------------------------|
|-5-5--5-5--5-5--5-5--5-5-|-5-5--5-5--5-5--5-5--5-5--5555-|
|-5-5--5-5--5-5--5-5--5-5-|-5-5--5-5--5-5--5-5--5-5--5555-|
|-3-3--3-3--3-3--3-3--3-3-|-3-3--3-3--3-3--3-3--3-3--3333-|

2.Bridge


Guitar1

|---------------------------|-------------------------------|
|---------------------------|-------------------------------|
|-4/5--4/5--4/5--4/5--4/5---|--4/5--4/5--4/5--4/5--4/5------|
|-x-x--x-x--x-x--x-x--x-x---|--x-x--x-x--x-x--x-x--x-x------|
|-2/3--2/3--2/3--2/3--2/3---|--2/3--2/3--2/3--2/3--2/3------|
|---------------------------|-------------------------------|

Guitar2
|-------------------------|------------------------------|
|-------------------------|------------------------------|
|-------------------------|------------------------------|
|-5-5--5-5--5-5--5-5--5-5-|-5-5--5-5--5-5--5-5--5-5------|
|-5-5--5-5--5-5--5-5--5-5-|-5-5--5-5--5-5--5-5--5-5------|
|-3-3--3-3--3-3--3-3--3-3-|-3-3--3-3--3-3--3-3--3-3------|


Guitar1

|-------------------------|------------------------------|
|-------------------------|------------------------------|
|-4/5--4/5--4/5--4/5--4/5-|------------------------------|
|-x-x--x-x--x-x--x-x--x-x-|-7/9--7/9--7/9--7/9--7/9------|
|-2/3--2/3--2/3--2/3--2/3-|-x-x--x-x--x-x--x-x--x-x------|
|-------------------------|-5/7--5/7--5/7--5/7--5/7------|

Guitar2

|-------------------------|------------------------------|
|-------------------------|------------------------------|
|-------------------------|------------------------------|
|-5-5--5-5--5-5--5-5--5-5-|-5-5--5-5--5-5--5-5--5-5------|
|-5-5--5-5--5-5--5-5--5-5-|-5-5--5-5--5-5--5-5--5-5------|
|-3-3--3-3--3-3--3-3--3-3-|-3-3--3-3--3-3--3-3--3-3------|


Guitar1

|-------------------------|------------------------------|
|-------------------------|------------------------------|
|-4/5--4/5--4/5--4/5--4/5-|-7/9--7/9--7/9--7/9--7/9------|
|-x-x--x-x--x-x--x-x--x-x-|-x-x--x-x--x-x--x-x--x-x------|
|-2/3--2/3--2/3--2/3--2/3-|-5/7--5/7--5/7--5/7--5/7------|
|-------------------------|------------------------------|

Guitar2

|-------------------------|----------------------------|
|-------------------------|----------------------------|
|-------------------------|-------------------------5~-|
|-5-5--5-5--5-5--5-5--5-5-|-5-5--5-5--5-5--5-5--5-5-5~-|
|-5-5--5-5--5-5--5-5--5-5-|-5-5--5-5--5-5--5-5--5-5-3~-|
|-3-3--3-3--3-3--3-3--3-3-|-3-3--3-3--3-3--3-3--3-3----|


Bridge-


Guitar

|----------------------------------|------------------------------|
|----------------------------------|------------------------------|
|---5------------------------------|------------------------------|
|---5------5-------7------3--------|------------------------------|
|---3------5-------7------3--------|------------------------------|
|----------3-------5------1--------|------------------------------|

Repeat Chorus

Guitar1 continuous...
|-----------------------------------------------------------------------|
|-----------------------------------------------------------------------|
|--4/5--4/5--4/5--4/5--4/5--4/5--4/5--4/5--4/5--4/5--4/5--4/5--4/5--4/5-|
|--x-x--x-x--x-x--x-x--x-x--x-x--x-x--x-x--x-x--x-x--x-x--x-x--x-x--x-x-|
|--2/3--2/3--2/3--2/3--2/3--2/3--2/3--2/3--2/3--2/3--2/3--2/3--2/3--2/3-|
|-----------------------------------------------------------------------|
Guitar2

|---------------------------------------------|
|---------------------------------------------|
|--5555555------------------------------------|
|--5555555--5555555--7777777--3333333---------|2x
|--3333333--5555555--7777777--3333333---------|
|-----------3333333--5555555--1111111---------|

Guitar3 continuous...

|---------15-15-15---------15-15-15------------|
|-13-13-13--------13-13-13--------13-13-13-13--|
|----------------------------------------------|
|----------------------------------------------|
|----------------------------------------------|
|----------------------------------------------|




Continued...
|---------------------------|---------------------|
|---------------------------|---------------------|
|-4/5--4/5--4/5--4/5--4/5---|--4--4--4--4--4------|
|-x-x--x-x--x-x--x-x--x-x---|--x--x--x--x--x------|
|-2/3--2/3--2/3--2/3--2/3---|--2--2--2--2--2------|
|---------------------------|---------------------|

|-----------------|------------------------------|
|-----------------|------------------------------|
|-5--5--5--5--5---|--4/5--4/5--4/5--4/5--4/5-----|
|-x--x--x--x--x---|--x-x--x-x--x-x--x-x--x-x-----|
|-3--3--3--3--3---|--2/3--2/3--2/3--2/3--2/3-----|
|-----------------|------------------------------|



                                                              10.Dear Bobbie Tab by Yellowcard






Guitar 1- { e b g d A E )

Guitar=Piano- { e b g d A E )
Intro-

Dear Bobbie,

Do you remember when you were young and very pretty? I do, I remember pleated skirts,
black and white sattle shoes. Do you remember dancing that night?
I do, I still think of you when we dance, although we cant jitterbug as we did then.


Guitar1
|---0-0-000-0-0-000---0-0-000-0-0-000----|
|---1-1-111-1-1-111---0-0-000-0-0-000----|
|---0-0-000-0-0-000---0-0-000-0-0-000----|
|---2-2-222-2-2-222---2-2-222-2-2-222----|4x
|---3-3-333-3-3-333---2-2-222-2-2-222----|
|---------------------0-0-000-0-0-000----|

Guitar=Piano
|--12-10--8---7---7----------------|  ---8----|
|----------------------------------|  --------|
|----------------------------------|4x--------|
|----------------------------------|  --------|
|----------------------------------|  --------|
|----------------------------------|  --------|




Verse-
Do you remember when
How long has it been?
1945 you opened my blue eyes
To see a whole new life

Guitar1

|-0-0-000-0-0-000-0--0-000-0-0-000-|  |-1-1-111-1-1-111--3-3-333-3-3-333--|
|-1-1-111-1-1-111-1--1-111-1-1-111-|  |-1-1-111-1-1-111--3-3-333-3-3-333--|
|-0-0-000-0-0-000-2--2-222-2-2-222-|  |-2-2-222-2-2-222--4-4-444-4-4-444--|
|-2-2-222-2-2-222-2--2-222-2-2-222-|2x|-3-3-333-3-3-333--5-5-555-5-5-555--|
|-3-3-333-3-3-333-0--0-000-0-0-000-|  |-3-3-333-3-3-333--5-5-555-5-5-555--|
|----------------------------------|  |-1-1-111-1-1-111--3-3-333-3-3-333--|


Guitar=Piano
|-----3-------3------3--------3----|  |-----5------5----|----3-------3---|
|---5--5----5--5---5---5----5---5--|  |---6---6--6---6--|--5---5---5--5--|
|-5-------5------5--------5--------|  |-5-------5-------|-5------5-------|
|----------------------------------|  |-----------------|----------------|
|----------------------------------|  |-----------------|----------------|
|----------------------------------|  |-----------------|----------------|


Do you remember when
I told you this that night,
That if you're by my side
When everyday begins
I'll fall for you again
I made a promise when

Guitar1
|-0-0-000-0-0-000-0--0-000-0-0-000-|  |-1-1-111-1-1-111--3-3-333-3-3-333--|
|-1-1-111-1-1-111-1--1-111-1-1-111-|  |-1-1-111-1-1-111--3-3-333-3-3-333--|
|-0-0-000-0-0-000-2--2-222-2-2-222-|  |-2-2-222-2-2-222--4-4-444-4-4-444--|
|-2-2-222-2-2-222-2--2-222-2-2-222-|2x|-3-3-333-3-3-333--5-5-555-5-5-555--|
|-3-3-333-3-3-333-0--0-000-0-0-000-|  |-3-3-333-3-3-333--5-5-555-5-5-555--|
|----------------------------------|  |-1-1-111-1-1-111--3-3-333-3-3-333--|


Guitar=Piano
|-----3-------3------3--------3----|  |-----5------5----|----3-------3---|
|---5--5----5--5---5---5----5---5--|  |---6---6--6---6--|--5---5---5--5--|
|-5-------5------5--------5--------|  |-5-------5-------|-5------5-------|
|----------------------------------|  |-----------------|----------------|
|----------------------------------|  |-----------------|----------------|
|----------------------------------|  |-----------------|----------------|

Refrain-
I told you this that night..And I'll be fine

Guitar1
|--1-1--111--1-1--111--------1-1-111-1-1-111-----------|
|--1-1--111--1-1--111--------1-1-111-1-1-111-----------|
|--2-2--222--2-2--222--------2-2-222-2-2-222-----------|
|--3-3--333--3-3--333--------3-3-333-3-3-333-----------|
|--3-3--333--3-3--333--------3-3-333-3-3-333-----------|
|--1-1--111--1-1--111--------1-1-111-1-1-111-----------|


Guitar=Piano
|--1-1--1-1--1-1--1-1--------1-1-1-1-1-1-1-1-----------|
|--1-1--1-1--1-1--1-1--------1-1-1-1-1-1-1-1-----------|
|--2-2--2-2--2-2--2-2--------2-2-2-2-2-2-2-2-----------|
|--3-3--3-3--3-3--3-3--------3-3-3-3-3-3-3-3-----------|?
|------------------------------------------------------|
|------------------------------------------------------|



Chorus-
Cause when I die, then I die loving you
It's alright, I'll be fine

Guitar1
|-0-0--00-3-3-33--0-0-00-0-0-00-1-1--111--1-1--111--1-1--111--1-1--111--|
|-1-1--11-3-3-33--1-1-11-1-1-11-1-1--111--1-1--111--1-1--111--1-1--111--|
|-0-0--00-4-4-44--2-2-22-2-2-22-2-2--222--2-2--222--2-2--222--2-2--222--|
|-2-2--22-5-5-55--2-2-22-2-2-22-2-2--222--2-2--222--2-2--222--2-2--222--|
|-3-3--33-5-5-55--0-0-00-0-0-00-2-2--222--2-2--222--2-2--222--2-2--222--|
|---------3-3-33----------------1-1--111--1-1--111--1-1--111--1-1--111--|

Guitar=Piano
|--8-----8-10----7---7--8----8----8-10--8----8-10------|---1-1-1-1-1-1-1-|
|-----8------------8-----------10----------10----------|---1-1-1-1-1-1-1-|
|------------------------------------------------------|---2-2-2-2-2-2-2-|
|------------------------------------------------------|---3-3-3-3-3-3-3-|
|------------------------------------------------------|-----------------|
|------------------------------------------------------|-----------------|


Cause when I die................ Loving you.......... ...............

Guitar1
|-0-0--00-3-3-33--0-0-00-0-0-00-1-1--111--1-1--111-1-1--111--1-1--111--|
|-1-1--11-3-3-33--1-1-11-1-1-11-3-3--333--3-3--333-1-1--111--1-1--111--|
|-0-0--00-4-4-44--2-2-22-2-2-22-2-2--222--2-2--222-2-2--222--2-2--222--|
|-2-2--22-5-5-55--2-2-22-2-2-22-0-0--000--0-0--000-2-2--222--2-2--222--|
|-3-3--33-5-5-55--0-0-00-0-0-00--------------------2-2--222--2-2--222--|
|---------3-3-33-----------------------------------1-1--111--1-1--111--|



Guitar=Piano
|--8-----8-10----7---7--8----8----8-10--8----8-10------|-13-12-10-8-8-8-----|
|-----8------------8-----------10----------10----------|---------------10-8-|
|------------------------------------------------------|--------------------|
|------------------------------------------------------|--------------------|
|------------------------------------------------------|--------------------|
|------------------------------------------------------|--------------------|

loving you...
Do you remember the times we would give up on eachother and get back together,then we 
was married in 1949. We drove the yellow convertible all night long.Do you remember? I do.

Guitar1
|---0-0-000-0-0-000---0-0-000-0-0-000----|
|---1-1-111-1-1-111---0-0-000-0-0-000----|
|---0-0-000-0-0-000---0-0-000-0-0-000----|
|---2-2-222-2-2-222---2-2-222-2-2-222----|4x
|---3-3-333-3-3-333---2-2-222-2-2-222----|
|---------------------0-0-000-0-0-000----|

Guitar=Piano
|--12-10--8---7---7----------------| 
|----------------------------------|  
|----------------------------------|4x
|----------------------------------| 
|----------------------------------| 
|----------------------------------| 

Do verse 1x Then Refrain  ,Chorus


Intelude-

Guitar1
|-0-0-000-0-0-000-0--0-000-0-0-000-|  |-1-1-111-1-1-111--3-3-333-3-3-333--|
|-1-1-111-1-1-111-0--0-000-0-0-000-|  |-1-1-111-1-1-111--3-3-333-3-3-333--|
|-0-0-000-0-0-000-0--0-000-0-0-000-|  |-2-2-222-2-2-222--4-4-444-4-4-444--|
|-2-2-222-2-2-222-2--2-222-2-2-222-|3x|-3-3-333-3-3-333--5-5-555-5-5-555--|
|-3-3-333-3-3-333-2--2-222-2-2-222-|  |-3-3-333-3-3-333--5-5-555-5-5-555--|
|-----------------0--0-000-0-0-000-|  |-1-1-111-1-1-111--3-3-333-3-3-333--|


Guitar=Piano
|--12-10--8---7---7----------------| 
|----------------------------------|  
|----------------------------------|4x
|----------------------------------| 
|----------------------------------| 
|----------------------------------| 


Bridge-verse-

I'm coming home to you
Stepping off my shoes
Resting in my chair
See you standing there
The silver in your hair

Guitar1
|----0------0------0-----0-----0-----0-----1-----3-------|
|----1------1------1-----1-----1-----1-----1-----3-------|
|----0------2------0-----2-----0-----2-----2-----4-------|
|----2------2------2-----2-----2-----2-----3-----5-------|
|----3------0------3-----0-----3-----0-----3-----5-------|
|------------------------------------------1-----3-------|


Guitar=Piano
|-----3-------3------3--------3----|  |-----5------5----|----3-------3---|
|---5--5----5--5---5---5----5---5--|  |---6---6--6---6--|--5---5---5--5--|
|-5-------5------5--------5--------|  |-5-------5-------|-5------5-------|
|----------------------------------|  |-----------------|----------------|
|----------------------------------|  |-----------------|----------------|
|----------------------------------|  |-----------------|----------------|



Do verse1x,ref,chorus,Intro

End with--

|-0-|
|-1-|
|-0-|
|-2-|
|-3-|
|---|


 ----------------------------------------------------------------------
                   11.You and me and one spotlight

----------------------------------------------------------------------
By-me
Tuning- Guitar1={ e b g d A E }
        Guitar2={ e b g d A E }
        Piano=Guitar={ e b g d A E }
        Bass=Guitar={ e b g d A E }
Intro-
Bass=Guitar

|-----------------------------------------|
|-----------------------------------------|
|-------7---------------7-----------------|
|-----7---7--5-4------7---7--5--4---------|
|-5----------------5----------------------|
|-----------------------------------------|

Verse-

It won't be long now....

Guitar1
|--3------2------0-----0-----0-----------0-----0-----0-----0-----|
|----3------3------3-----3-----3-------2---2-----2-----2---------|
|----------------------------------------------------------------|
|------0-------0-----0-----0-----0---0-------0-----0-----0-------|4x
|----------------------------------------------------------------|
|----------------------------------------------------------------|

Bass=Guitar
|------------------------------------------------------------------------------|
|------------------------------------------------------------------------------|
|--------7------------------------7----------------7-------------7-------------|
|------7---7--5-4--------------7---7--5--4-------7---7--5--4---7---7--5--4-----|
|--5------------------------5--------------------------------7-----------------|
|----------------------------------------------7-------------------------------|



Refrain-

Go put on your best tonight
It's you and me and one spotlight
One more show one last time
We are ready

Guitar1
|---------------|---------------|-------------------|----------|
|---------------|---------------|-------------------|----------|
|---------------|---------------|-------------------|--7777----|x
|---------------|---------------|-------------------|--7777----|x
|---------------|---------------|-------------------|--5555----|x
|---------------|---------------|-------------------|----------|
Guitar2

|---------------|---------------|-------------------|-----------|
|---------------|---------------|-------------------|-----------|
|--7--9--12--11-|--7--9--12--11-|--7--9--12--11-----|--xxxx-----|
|--x--x--x---x--|--x--x--x---x--|--x--x--x---x------|--xxxx-----|
|--5--7--10--9--|--5--7--10--9--|--5--7--10--9------|--xxxx-----|
|---------------|---------------|-------------------|-----------|



Chorus-

Say you will be all around me...

1.
Guitar1

|-------------------------|---------------------------|
|-------------------------|---------------------------|
|-7-7-7-7-7-7-7-7-7-7-7-7-|-4-4-4-4-4-4-4-4-4-4-4-4---|
|-7-7-7-7-7-7-7-7-7-7-7-7-|-4-4-4-4-4-4-4-4-4-4-4-4---|
|-5-5-5-5-5-5-5-5-5-5-5-5-|-2-2-2-2-2-2-2-2-2-2-2-2---|
|-------------------------|---------------------------|

Guitar2
|----------------------------|----------------------------|
|----------------------------|----------------------------|
|-7-999-11-11-18-18-18-14-14-|-7-999-11-11-18-18-18-14-14-|
|-x-xxx-x--x--x--x--x--x--x--|-x-xxx-x--x--x--x--x--x--x--|
|-5-777-9--9--16-16-16-12-12-|-5-777-9--9--16-16-16-12-12-|
|----------------------------|----------------------------|


2.
Guitar1

|-------------------------|---------------------------|
|-------------------------|---------------------------|
|-------------------------|---------------------------|
|---2--2--2--2--2--2--2---|---5--5--5--5--5--5--5-----|
|---2--2--2--2--2--2--2---|---5--5--5--5--5--5--5-----|
|---0--0--0--0--0--0--0---|---3--3--3--3--3--3--3-----|

Guitar2
|-------------------------|---------------------------|
|-------------------------|---------------------------|
|---7---9-9-9---11-11-----|-----7---9-9-9---11-11-----|
|---x---x-x-x---x--x------|-----x---x-x-x---x--x------|
|---5---7-7-7---9--9------|-----5---7-7-7---9--9------|
|-------------------------|---------------------------|

Repeat Verse 

Guitar1
|--3------2------0-----0-----0-----------0-----0-----0-----0-----|
|----3------3------3-----3-----3-------2---2-----2-----2---------|
|----------------------------------------------------------------|
|------0-------0-----0-----0-----0---0-------0-----0-----0-------|4x
|----------------------------------------------------------------|
|----------------------------------------------------------------|

Refrain @ Do Chorus 2x

Bridge-

Guitar1
|-----------------------------------|----------------------------------|
|-----------------------------------|----------------------------------|
|--7~-------------------------------|--7~------------------------------|
|--7~-------------------------------|--7~------------------------------|
|--5~-------------------------------|--5~------------------------------|
|-----------------------------------|----------------------------------|

Guitar2
|-----------------------------------|----------------------------------|
|-----------------------------------|----------------------------------|
|-7--9--12--11-11-18--18--14-14-14--|-7--9--12--11-11-18--18--14-14-14-|
|-x--x--x---x--x--x---x---x--x--x---|-x--x--x---x--x--x---x---x--x--x--|
|-5--7--10--9--9--16--16--12-12-12--|-5--7--10--9--9--16--16--12-12-12-|
|-----------------------------------|----------------------------------|


Guitar1
|---------------|---------------|-------------------|-----------|
|---------------|---------------|-------------------|-----------|
|----4~---------|---------------|--4~---------------|-----------|
|----4~---------|----5~---------|--4~---------------|-7---------|
|----2~---------|----5~---------|--2~---------------|-7---------|
|---------------|----3~---------|-------------------|-5---------|

Guitar2

|---------------|---------------|-------------------|-----------|
|---------------|---------------|-------------------|-----------|
|--7--9--12--11-|--7--9--12--11-|--7--9--12--11-----|-18--14-14-|
|--x--x--x---x--|--x--x--x---x--|--x--x--x---x------|-x---x--x--|
|--5--7--10--9--|--5--7--10--9--|--5--7--10--9------|-16--12-12-|
|---------------|---------------|-------------------|-----------|

Repeat Intro 1x

It won't be long now...

Bass=Guitar
|-----------------------------------------|
|-----------------------------------------|
|-------7---------------------------------|
|-----7---7--5-4--------------------------|
|-5---------------------------------------|
|-----------------------------------------|


Repeat Chorus 2x

Outro-
1.
Guitar1

|-------------------------------------------------------------------------|
|-------------------------------------------------------------------------|
|--7-7-7-7-7-7-7-7-7-7-7-7-7-7-7-7-7-7-7-7-7-7-7-7-7-7-7-7-7-7-7-7-7-7-7--|
|--7-7-7-7-7-7-7-7-7-7-7-7-7-7-7-7-7-7-7-7-7-7-7-7-7-7-7-7-7-7-7-7-7-7-7--|
|--5-5-5-5-5-5-5-5-5-5-5-5-5-5-5-5-5-5-5-5-5-5-5-5-5-5-5-5-5-5-5-5-5-5-5--|
|-------------------------------------------------------------------------|

Guitar2
|----------------------------|----------------------------|
|----------------------------|----------------------------|
|-7-999-11-11-18-18-18-14-14-|-7-999-11-11-18-18-18-14-14-|
|-x-xxx-x--x--x--x--x--x--x--|-x-xxx-x--x--x--x--x--x--x--|
|-5-777-9--9--16-16-16-12-12-|-5-777-9--9--16-16-16-12-12-|
|----------------------------|----------------------------|

2.
Guitar1

|-------------------------------------------------------------------------|
|-------------------------------------------------------------------------|
|--7-7-7-7-7-7-7-7-7-7-7-7-7-7-7-7-7-7-7-7-7-7-7-7-7-7-7-7-7-7-7-7-7-7-7--|
|--7-7-7-7-7-7-7-7-7-7-7-7-7-7-7-7-7-7-7-7-7-7-7-7-7-7-7-7-7-7-7-7-7-7-7--|
|--5-5-5-5-5-5-5-5-5-5-5-5-5-5-5-5-5-5-5-5-5-5-5-5-5-5-5-5-5-5-5-5-5-5-5--|
|-------------------------------------------------------------------------|

Guitar2

|-------------------------------------------------------------------------|
|-------------------------------------------------------------------------|
|--7-7-7-7-7-7-7-7-7-7-7-7-7-7-7-7-7-7-7-7-7-7-7-7-7-7-7-7-7-7-7-7-7-7-7--|
|--x-x-x-x-x-x-x-x-x-x-x-x-x-x-x-x-x-x-x-x-x-x-x-x-x-x-x-x-x-x-x-x-x-x-x--|
|--5-5-5-5-5-5-5-5-5-5-5-5-5-5-5-5-5-5-5-5-5-5-5-5-5-5-5-5-5-5-5-5-5-5-5--|
|-------------------------------------------------------------------------|

Piano=Guitar

|---------------------|------------------|
|--------14-----------|------14----------|
|------14--14--12-11--|----14--14--12-11-|
|--12-----------------|-12---------------|Till fade
|---------------------|------------------|
|---------------------|------------------|

End With
Guitar1
|---------------|
|---------------|
|-----7~--------|
|-----7~--------|
|-----5~--------|
|---------------|

Guitar2
|---------------|
|---------------|
|-----7~--------|
|-----x---------|
|-----5~--------|
|---------------|

----------------------------------------------------------------------

			12. CUT ME, MICK – Yellowcard
-----------------------------------------------------------------------

Tabbed by: Anthinator

Tuning: D A D G b e

-=GUITAR ONE=- (Ryan Mendez)

INTRO: 0:00-0:16
e|---------------------------------------------------------------------------|
B|---------------------------------------------------------------------------|
G|--------------------------------------------------------------------4------|
D|-555-0---5p0---4p0---0h2p0---2p0---------5p0---4p0---0h2p0---2--555-4------|
A|-555-0-----------------------------4h5--------------------------555-2------|
D|-555-0-------0-----0-------0-----0-----0-----0-----0-------0----555--------|

e|---------------------------------------------------------------------------|
B|---------------------------------------------------------------------------|
G|---------------------------------------------------------------------------|
D|-5p0---4p0---0h2p0---2p0---------5p0---4p0---0h2p0---2--555-0-5p0--4p0-----|
A|---------------------------4h5--------------------------555-0--------------|
D|-----0-----0-------0-----0-----0-----0-----0-------0----555-0-----0----0---|

e|---------------------------------------------------------------------------|
B|---------------------------------------------------------------------------|
G|---------------------------------------------------------------------------|
D|-0h2p0---2p0--------5p0---4p0---0h2p0---2p0-------0~-----------------------|
A|---------------4h5----------------------------4h5-0~-----------------------|
D|-------0-----0-----0----0-----0-------0-----0-----0~-----------------------|


VERSE 1: 0:27-0:39 "Some place, somewhere behind me..."
e|------------------------------------------------------------------------------|
B|------------------------------------------------------------------------------|
G|------------------------------------------------------------------------------|
D|----------------------------------------------------------------0-0-0-0-0-0-0-|
A|-5-/-12-12-12-14-14-14-10-10-10-9-9-9-9-9-9-9-7-7-7-9-9-9-5-5-5-4-4-4-4-4-4-4-|
D|------------------------------------------------------------------------------|

e|---------------------------------------------------------------------------|
B|---------------------------------------------------------------------------|
G|---------------------------------------------------------------------------|
D|-0-0-0-0-0-0-0-0-0-0-0-0-0-0-0-0-0-0-0-0-0-0-0-0-0-0-0-0-0-0-0-0-----------|
A|-2-2-2-4-4-4-5-5-5-5-5-5-5-5-5-5-2-2-2-4-4-4-5-5-5-5-5-5-5-5-5-5-4-4-4-----|
D|---------------------------------------------------------------------------|

e|---------------------------------------------------------------------------|
B|---------------------------------------------------------------------------|
G|---------------------------------------------------------------------------|
D|---------------------------------------------------------------------------|
A|-5-5-5-7-7-7-7-7-7---------------------------------------------------------|
D|---------------------------------------------------------------------------|

CHORUS: 0:40-1:01 "You are the one that I need..."
e|---------------------------------------------------------------------------|
B|---------------------------------------------------------------------------|
G|---------------------------------------------------------------------------|
D|-555-0-00-0-0-0-0-555-0-00-0-0-0-0-555-9-99-9-9-9-9-777-9-99-9-9-9-9-777---|
A|-555-0-00-0-0-0-0-555-0-00-0-0-0-0-555-9-99-9-9-9-9-777-9-99-9-9-9-9-777---|
D|-555-0-00-0-0-0-0-555-0-00-0-0-0-0-555-9-99-9-9-9-9-777-9-99-9-9-9-9-777---|

e|---------------------------------------------------------------------------|
B|---------------------------------------------------------------------------|
G|-1111111111111111111111116-6-6-7-7-7-7-7-7-7-7-7-7-7-7-7-7-7-7-14-14-14-14-|
D|-x-x-x-x-x-x-x-x-x-x-x-x-x-x-x-x-x-x-x-x-x-x-x-x-x-x-x-x-x-x-x-x--x--x--x--|
A|-9-9-9-9-9-9-9-9-9-9-9-9-4-4-4-5-5-5-5-5-5-5-5-5-5-5-5-5-5-5-5-12-12-12-12-|
D|---------------------------------------------------------------------------|

e|----------------------------------------------------------------------------|
B|----------------------------------------------------------------------------|
G|-14-14-14-14-14-14-14-14-14-7-7-7-14-14-14-14-14-14-14-14-14-14-14-14-14-14-|
D|-x--x--x--x--x--x--x--x--x--x-x-x-x--x--x--x--x--x--x--x--x--x--x--x--x--x--|
A|-12-12-12-12-12-12-12-12-12-5-5-5-12-12-12-12-12-12-12-12-12-12-12-12-12-12-|
D|----------------------------------------------------------------------------|

e|---------------------------------------------------------------------------|
B|---------------------------------------------------------------------------|
G|-14-14---------------------------------------------------------------------|
D|-x--x--0~------------------------------------------------------------------|
A|-12-12-0~------------------------------------------------------------------|
D|-------0~------------------------------------------------------------------|

VERSE 2: 1X 1:04-1:26 "When I thought that I might..."
e|------------------------------------------------------------------------------|
B|------------------------------------------------------------------------------|
G|------------------------------------------------------------------------------|
D|----------------------------------------------------------------0-0-0-0-0-0-0-|
A|-5-/-12-12-12-14-14-14-10-10-10-9-9-9-9-9-9-9-7-7-7-9-9-9-5-5-5-4-4-4-4-4-4-4-|
D|------------------------------------------------------------------------------|

e|------------------------------------------------------------------------------|
B|------------------------------------------------------------------------------|
G|------------------------------------------------------------------------------|
D|-0-0-0-0-0-0-0-0-0-0-0-0-0-0-0-0-0-0-0-0-0-0-0-0-0-0-0-0----------------------|
A|-2-2-2-4-4-4-5-5-5-5-5-5-5-5-2-2-2-4-4-4-5-5-5-5-5-5-5-5-12-12-12-12-14-14-14-|
D|------------------------------------------------------------------------------|

e|------------------------------------------------------------------------------|
B|------------------------------------------------------------------------------|
G|------------------------------------------------------------------------------|
D|------------------------------------------0-0-0-0-0-0-0-0-0-0-0-0-0-0-0-0-0-0-|
A|-10-10-10-9-9-9-9-9-9-9-7-7-7-9-9-9-5-5-5-4-4-4-4-4-4-4-2-2-2-4-4-4-5-5-5-5-5-|
D|------------------------------------------------------------------------------|

e|------------------------------------------------------------------------------|
B|------------------------------------------------------------------------------|
G|------------------------------------------------------------------------------|
D|-0-0-0-0-0-0-0-0-0-0-0-0-0-0-0------------------------------------------------|
A|-5-5-5-2-2-2-4-4-4-5-5-5-5-5-5------------------------------------------------|
D|------------------------------------------------------------------------------|

CHORUS: 1:26-1:47 "You are the one that I need..."
e|---------------------------------------------------------------------------|
B|---------------------------------------------------------------------------|
G|---------------------------------------------------------------------------|
D|-555-0-00-0-0-0-0-555-0-00-0-0-0-0-555-9-99-9-9-9-9-777-9-99-9-9-9-9-777---|
A|-555-0-00-0-0-0-0-555-0-00-0-0-0-0-555-9-99-9-9-9-9-777-9-99-9-9-9-9-777---|
D|-555-0-00-0-0-0-0-555-0-00-0-0-0-0-555-9-99-9-9-9-9-777-9-99-9-9-9-9-777---|

e|---------------------------------------------------------------------------|
B|---------------------------------------------------------------------------|
G|-1111111111111111111111116-6-6-7-7-7-7-7-7-7-7-7-7-7-7-7-7-7-7-14-14-14-14-|
D|-x-x-x-x-x-x-x-x-x-x-x-x-x-x-x-x-x-x-x-x-x-x-x-x-x-x-x-x-x-x-x-x--x--x--x--|
A|-9-9-9-9-9-9-9-9-9-9-9-9-4-4-4-5-5-5-5-5-5-5-5-5-5-5-5-5-5-5-5-12-12-12-12-|
D|---------------------------------------------------------------------------|

e|----------------------------------------------------------------------------|
B|----------------------------------------------------------------------------|
G|-14-14-14-14-14-14-14-14-14-7-7-7-14-14-14-14-14-14-14-14-14-14-14-14-14-14-|
D|-x--x--x--x--x--x--x--x--x--x-x-x-x--x--x--x--x--x--x--x--x--x--x--x--x--x--|
A|-12-12-12-12-12-12-12-12-12-5-5-5-12-12-12-12-12-12-12-12-12-12-12-12-12-12-|
D|----------------------------------------------------------------------------|

e|---------------------------------------------------------------------------|
B|---------------------------------------------------------------------------|
G|-14-14---------------------------------------------------------------------|
D|-x--x--0~------------------------------------------------------------------|
A|-12-12-0~------------------------------------------------------------------|
D|-------0~------------------------------------------------------------------|

BRIDGE PT 1: Does not play

BRIDGE PT 2: 2:14-2:25 "You are the one that I need..."
e|-----------------------------------------------------------------------------|
B|-----------------------------------------------------------------------------|
G|-----------------------------------------------------------------------------|
D|---5p0---4p0---0h2p0---2p0---------5p0---4p0---0h2p0---2p0-------------------|
A|-----------------------------4h5-----------------------------4h5-------------|
D|-0-----0-----0-------0-----0-----0-----0-----0-------0-----0-----------------|

e|-----------------------------------------------------------------------------|
B|-----------------------------------------------------------------------------|
G|-----------------------------------------------------------------------------|
D|---5p0---4p0---0h2p0---2p0---------5p0---4p0---0h2p0---2p0-------------------|
A|-----------------------------4h5-----------------------------4h5-------------|
D|-0-----0-----0-------0-----0-----0-----0-----0-------0-----0-----------------|

BRIDGE PT 3: 2:25-2:35
e|-----------------------------------------------------------------------------|
B|-----------------------------------------------------------------------------|
G|-----------------------------------------------------------------------------|
D|---9p0---7p0---4h5p4---5p4---2h4---9p0---7p0---4h5p4---5p4---2h4-------------|
A|-----------------------------------------------------------------------------|
D|-0-----0-----0-------0-----0-----0-----0-----0-------0-----0-----------------|

e|-----------------------------------------------------------------------------|
B|-----------------------------------------------------------------------------|
G|-----------------------------------------------------------------------------|
D|---9p0---7p0---4h5p4---5p4---2h4---9p0---7p0---4h5p4---5---------------------|
A|-----------------------------------------------------------------------------|
D|-0-----0-----0-------0-----0-----0-----0-----0-------0-----------------------|

CHORUS: 2:35-2:56 "You are the one that I need..."
e|---------------------------------------------------------------------------|
B|---------------------------------------------------------------------------|
G|---------------------------------------------------------------------------|
D|-555-0-00-0-0-0-0-555-0-00-0-0-0-0-555-9-99-9-9-9-9-777-9-99-9-9-9-9-777---|
A|-555-0-00-0-0-0-0-555-0-00-0-0-0-0-555-9-99-9-9-9-9-777-9-99-9-9-9-9-777---|
D|-555-0-00-0-0-0-0-555-0-00-0-0-0-0-555-9-99-9-9-9-9-777-9-99-9-9-9-9-777---|

e|---------------------------------------------------------------------------|
B|---------------------------------------------------------------------------|
G|-1111111111111111111111116-6-6-7-7-7-7-7-7-7-7-7-7-7-7-7-7-7-7-14-14-14-14-|
D|-x-x-x-x-x-x-x-x-x-x-x-x-x-x-x-x-x-x-x-x-x-x-x-x-x-x-x-x-x-x-x-x--x--x--x--|
A|-9-9-9-9-9-9-9-9-9-9-9-9-4-4-4-5-5-5-5-5-5-5-5-5-5-5-5-5-5-5-5-12-12-12-12-|
D|---------------------------------------------------------------------------|

e|---------------------------------------------------------------------------|
B|---------------------------------------------------------------------------|
G|-14-14-14-14-14-14-14-14-14-7-7-7-14-14-14-14-14-14-14-14-14-14-14-14------|
D|-x--x--x--x--x--x--x--x--x--x-x-x-x--x--x--x--x--x--x--x--x--x--x--x-------|
A|-12-12-12-12-12-12-12-12-12-5-5-5-12-12-12-12-12-12-12-12-12-12-12-12------|
D|-----------------------------------------------------------------------\12-|

OUTRO: 2:56-3:18 "You are the one that I need..."
e|-----------------------------------------------------------------------------|
B|-----------------------------------------------------------------------------|
G|-----------------------------------------------------------------------------|
D|---5p0---4p0---0h2p0---2p0---------5p0---4p0---0h2p0---2p0-------------------|
A|-----------------------------4h5-----------------------------4h5-------------|
D|-0-----0-----0-------0-----0-----0-----0-----0-------0-----0-----------------|

e|-----------------------------------------------------------------------------|
B|-----------------------------------------------------------------------------|
G|-----------------------------------------------------------------------------|
D|---5p0---4p0---0h2p0---2p0---------5p0---4p0---0h2p0---2p0-------------------|
A|-----------------------------4h5-----------------------------4h5-------------|
D|-0-----0-----0-------0-----0-----0-----0-----0-------0-----0-----------------|

e|-----------------------------------------------------------------------------|
B|-----------------------------------------------------------------------------|
G|-----------------------------------------------------------------------------|
D|---5p0---4p0---0h2p0---2p0---------5p0---4p0---0h2p0---2p0-------------------|
A|-----------------------------4h5-----------------------------4h5-------------|
D|-0-----0-----0-------0-----0-----0-----0-----0-------0-----0-----------------|

e|-----------------------------------------------------------------------------|
B|-----------------------------------------------------------------------------|
G|-----------------------------------------------------------------------------|
D|---5p0---4p0---0h2p0---2p0---------5p0---4p0---0h2p0---2p0-------0~----------|
A|-----------------------------4h5-----------------------------4h5-0~----------|
D|-0-----0-----0-------0-----0-----0-----0-----0-------0-----0-----0~----------|


-=GUITAR TWO=- (Ryan Key)

INTRO: 0:00-0:16
e|---------------------------------------------------------------------------|
B|---------------------------------------------------------------------------|
G|--------------------------------------------------------------------4------|
D|-555-0---5p0---4p0---0h2p0---2p0---------5p0---4p0---0h2p0---2--555-4------|
A|-555-0-----------------------------4h5--------------------------555-2------|
D|-555-0-------0-----0-------0-----0-----0-----0-----0-------0----555--------|

e|---------------------------------------------------------------------------|
B|---------------------------------------------------------------------------|
G|---------------------------------------------------------------------------|
D|-5p0---4p0---0h2p0---2p0---------5p0---4p0---0h2p0---2--555-0-5p0--4p0-----|
A|---------------------------4h5--------------------------555-0--------------|
D|-----0-----0-------0-----0-----0-----0-----0-------0----555-0-----0----0---|

e|---------------------------------------------------------------------------|
B|---------------------------------------------------------------------------|
G|---------------------------------------------------------------------------|
D|-0h2p0---2p0--------5p0---4p0---0h2p0---2p0-------0~-----------------------|
A|---------------4h5----------------------------4h5-0~-----------------------|
D|-------0-----0-----0----0-----0-------0-----0-----0~-----------------------|

VERSE 1: Does not play

CHORUS: 0:40-1:01 "You are the one that I need..."
e|---------------------------------------------------------------------------|
B|---------------------------------------------------------------------------|
G|---------------------------------------------------------------------------|
D|-555-0-00-0-0-0-0-555-0-00-0-0-0-0-555-9-99-9-9-9-9-777-9-99-9-9-9-9-777---|
A|-555-0-00-0-0-0-0-555-0-00-0-0-0-0-555-9-99-9-9-9-9-777-9-99-9-9-9-9-777---|
D|-555-0-00-0-0-0-0-555-0-00-0-0-0-0-555-9-99-9-9-9-9-777-9-99-9-9-9-9-777---|

e|---------------------------------------------------------------------------|
B|---------------------------------------------------------------------------|
G|---------------------------------------------------------------------------|
D|-0-00-0-0-0-0-555-0-00-0-0-0-0-555-9-99-9-9-9-9-777-9-99-9-9-9-9-777-0~----|
A|-0-00-0-0-0-0-555-0-00-0-0-0-0-555-9-99-9-9-9-9-777-9-99-9-9-9-9-777-0~----|
D|-0-00-0-0-0-0-555-0-00-0-0-0-0-555-9-99-9-9-9-9-777-9-99-9-9-9-9-777-0~----|

VERSE 2: 1:04-1:26 "When I thought that I might..."
e|------------------------------------------------------------------------------|
B|------------------------------------------------------------------------------|
G|------------------------------------------------------------------------------|
D|------------------------------------------------------------------------------|
A|-5-/-9-9-9-10-10-10-7-7-7-5-5-5-5-5-5-5-4-4-4-5-5-5-2-2-2-0-0-0-0-0-0-0-------|
D|------------------------------------------------------------------------------|

e|--------------------------------------------------------------------------------|
B|--------------------------------------------------------------------------------|
G|--------------------------------------------------------------------------------|
D|--------------------------------------------------------------------------------|
A|-5-5-5-7-7-7-9-9-9-9-9-9-9-9-9-9-5-5-5-7-7-7-9-9-9-7-7-7-7-7-7-7-9-9-9-10-10-10-|
D|--------------------------------------------------------------------------------|

e|------------------------------------------------------------------------------|
B|------------------------------------------------------------------------------|
G|------------------------------------------------------------------------------|
D|------------------------------------------------------------------------------|
A|-7-7-7-5-5-5-5-5-5-5-4-4-4-5-5-5-2-2-2-0-0-0-0-0-0-0-5-5-5-7-7-7-9-9-9-9-9-9--|
D|------------------------------------------------------------------------------|

e|------------------------------------------------------------------------------|
B|------------------------------------------------------------------------------|
G|------------------------------------------------------------------------------|
D|------------------------------------------------------------------------------|
A|-9-9-9-9-5-5-5-7-7-7-9-9-9-9-9-9----------------------------------------------|
D|------------------------------------------------------------------------------|

CHORUS: 1:26-1:47 "You are the one that I need..."
e|---------------------------------------------------------------------------|
B|---------------------------------------------------------------------------|
G|---------------------------------------------------------------------------|
D|-555-0-00-0-0-0-0-555-0-00-0-0-0-0-555-9-99-9-9-9-9-777-9-99-9-9-9-9-777---|
A|-555-0-00-0-0-0-0-555-0-00-0-0-0-0-555-9-99-9-9-9-9-777-9-99-9-9-9-9-777---|
D|-555-0-00-0-0-0-0-555-0-00-0-0-0-0-555-9-99-9-9-9-9-777-9-99-9-9-9-9-777---|

e|---------------------------------------------------------------------------|
B|---------------------------------------------------------------------------|
G|---------------------------------------------------------------------------|
D|-0-00-0-0-0-0-555-0-00-0-0-0-0-555-9-99-9-9-9-9-777-9-99-9-9-9-9-777-0~----|
A|-0-00-0-0-0-0-555-0-00-0-0-0-0-555-9-99-9-9-9-9-777-9-99-9-9-9-9-777-0~----|
D|-0-00-0-0-0-0-555-0-00-0-0-0-0-555-9-99-9-9-9-9-777-9-99-9-9-9-9-777-0~----|

BRIDGE PT 1: 1:48-2:14
e|---------------------------------------------------------------------------|
B|---------------------------------------------------------------------------|
G|---------------------------------------------------------------------------|
D|-5---5---5---5---7---7---7---7---0---0---0---0---0---0---0---0-------------|
A|---5---5---5---5---5---5---5---5---2---2---2---2---5---5---5---5-----------|
D|---------------------------------------------------------------------------|

  "I can't keep this together..."
e|---------------------------------------------------------------------------|
B|---------------------------------------------------------------------------|
G|---------------------------------------------------------------------------|
D|-5---5---5---5---7---7---7---7---0---0---0---0---0---0---0---0-------------|
A|---5---5---5---5---5---5---5---5---2---2---2---2---5---5---5---5-----------|
D|---------------------------------------------------------------------------|

e|---------------------------------------------------------------------------|
B|---------------------------------------------------------------------------|
G|---------------------------------------------------------------------------|
D|-5---5---5---5---7---7---7---7---0---0---0---0---0---0---0---0-------------|
A|---5---5---5---5---5---5---5---5---2---2---2---2---4---4---4---4-----------|
D|---------------------------------------------------------------------------|

e|---------------------------------------------------------------------------|
B|---------------------------------------------------------------------------|
G|---------------------------------------------------------------------------|
D|-5---5---5---5---7---7---7---7---0---0---0---0---0---0---0---0-------------|
A|---5---5---5---5---5---5---5---5---2---2---2---2---5---5---5---5-----------|
D|---------------------------------------------------------------------------|

e|---------------------------------------------------------------------------|
B|---------------------------------------------------------------------------|
G|---------------------------------------------------------------------------|
D|-5---5---5---5---7---7---7---7---0---0---0---0---0---0---0---0-------------|
A|---5---5---5---5---5---5---5---5---2---2---2---2---4---4---4---4-----------|
D|---------------------------------------------------------------------------|

BRIDGE PT 2: 2:14-2:25 "You are the one that I need..."
e|---------------------------------------------------------------------------|
B|---------------------------------------------------------------------------|
G|---------------------------------------------------------------------------|
D|-5---5---5---5---7---7---7---7---0---0---0---0---0---0---0---0-------------|
A|---5---5---5---5---5---5---5---5---2---2---2---2---5---5---5---5-----------|
D|---------------------------------------------------------------------------|

e|---------------------------------------------------------------------------|
B|---------------------------------------------------------------------------|
G|---------------------------------------------------------------------------|
D|-5---5---5---5---7---7---7---7---0---0---0---0---0---0---0---0-------------|
A|---5---5---5---5---5---5---5---5---2---2---2---2---4---4---4---4-----------|
D|---------------------------------------------------------------------------|

BRIDGE PT 3: 2:25-2:35
e|-----------------------------------------------------------------------------|
B|-----------------------------------------------------------------------------|
G|-----------------------------------------------------------------------------|
D|---5p0---4p0---0h2p0---2p0---------5p0---4p0---0h2p0---2p0-------------------|
A|-----------------------------4h5-----------------------------4h5-------------|
D|-0-----0-----0-------0-----0-----0-----0-----0-------0-----0-----------------|

e|-----------------------------------------------------------------------------|
B|-----------------------------------------------------------------------------|
G|-----------------------------------------------------------------------------|
D|---5p0---4p0---0h2p0---2p0---------5p0---4p0---0h2p0---2---------------------|
A|-----------------------------4h5---------------------------------------------|
D|-0-----0-----0-------0-----0-----0-----0-----0-------0-----------------------|

CHORUS: 2:35-2:56 "You are the one that I need..."
e|---------------------------------------------------------------------------|
B|---------------------------------------------------------------------------|
G|---------------------------------------------------------------------------|
D|-555-0-00-0-0-0-0-555-0-00-0-0-0-0-555-9-99-9-9-9-9-777-9-99-9-9-9-9-777---|
A|-555-0-00-0-0-0-0-555-0-00-0-0-0-0-555-9-99-9-9-9-9-777-9-99-9-9-9-9-777---|
D|-555-0-00-0-0-0-0-555-0-00-0-0-0-0-555-9-99-9-9-9-9-777-9-99-9-9-9-9-777---|

e|---------------------------------------------------------------------------|
B|---------------------------------------------------------------------------|
G|---------------------------------------------------------------------------|
D|-0-00-0-0-0-0-555-0-00-0-0-0-0-555-9-99-9-9-9-9-777-9-99-9-9-9-9-----------|
A|-0-00-0-0-0-0-555-0-00-0-0-0-0-555-9-99-9-9-9-9-777-9-99-9-9-9-9-----------|
D|-0-00-0-0-0-0-555-0-00-0-0-0-0-555-9-99-9-9-9-9-777-9-99-9-9-9-9--\12------|

OUTRO: 2:56-3:18 "You are the one that I need..."
e|------------------------------------------------------------------------------|
B|------------------------------------------------------------------------------|
G|------------------------------------------------------------------------------|
D|-55555555-77777777-99999999-00000000-55555555-77777777-99999999-00000000------|
A|-55555555-77777777-99999999-00000000-55555555-77777777-99999999-00000000------|
D|-55555555-77777777-99999999-00000000-55555555-77777777-99999999-00000000------|


e|------------------------------------------------------------------------------|
B|------------------------------------------------------------------------------|
G|------------------------------------------------------------------------------|
D|-55555555-77777777-99999999-00000000-55555555-77777777-99999999-00000000-0~---|
A|-55555555-77777777-99999999-00000000-55555555-77777777-99999999-00000000-0~---|
D|-55555555-77777777-99999999-00000000-55555555-77777777-99999999-00000000-0~---|


----------------------------------------------------------------------
			13. Paper Walls - Yellowcard
----------------------------------------------------------------------

By minichibi

Artist: Yellowcard
Album: Paper Walls
Song: Paper Walls
Runtime: 4:28

Intro – Choir sings + Acoustic guitar (0:00 – 0:33):

      Bm        G         D
E |---2---------3---------2--------)|   The D chord lasts
B |---3---------3---------3--------)|   twice as long as the
G |---4---------0---------2--------)|   other chords.
D |---4---------0---------0---(x4--)|
A |---2---------2------------------)|   (If you decide to bar
E |-------------3------------------)|   these chords, use D5.)

Intro 2 - Until vocals start (0:36 – 0:50):

         G          F#      G        B D F#
E |---------------------------------------------| On the last time,
B |---------------------------------------------| hold on the B so
G |-------7----7-7----------7--7-7---4-7--------| you can go straight
D |-------7----7-7---4-4----7--7-7---x-x-4—(x4)-| into the verse.
A |-------5----5-5---4-4----5--5-5---2-5-x------|
E |--///-------------2-2^----------------2------|
               > >

Verse Pt. 1 – (0:50 – 1:05):

        B5          G5        D5
E |-----------------------------------------------------------|
B |-----------------------------------------------------------|
G |-----------------------------------------------------------|
D |------------------------------7-----7-----7-----7------(x2)|
A |-----9-----9------5-----5-----5-555-5-555-5-555-5-555------|
E |-----7-777-7-777--3-333-3-333------------------------------|
PM:     ................................................

The strumming is weird, just listen so you can tell where to put the bass notes, but 
( ^ verse Pt. 1 ^) sounds right-ish.

Verse Pt. 2 – (1:05 – 1:08):

E |------------------------------|
B |------------------------------|
G |------------------------------|
D |------------------------------|
A |--2-----2-----5-----5---------|
E |--0-000-0-000-3-333-3-333-----|
PM: ........................

Verse Pt. 3 – (1:08 – 1:28):

[Guitar 1 – same as Guitar for Pt. 1)
        B5          G5        D5
E |-----------------------------------------------------------|
B |-----------------------------------------------------------|
G |-----------------------------------------------------------|
D |------------------------------7-----7-----7-----7------(x2)|
A |-----9-----9------5-----5-----5-555-5-555-5-555-5-555------|
E |-----7-777-7-777--3-333-3-333------------------------------|
PM:     ................................................

[Guitar 2 – Same chords but the full versions.]

       Bm           G            D
E |----2-----2------3-----3------2-----2------2-----2--------|
B |----3-333-3-333--3-333-3-333--3-333-3-333--3-333-3-333----|
G |----4-----4------0-----0------2-----2------2-----2--------|
D |----4-----4------0-----0------0-----0------0-----0----(x4)|
A |----2-----2------2-----2----------------------------------|
E |-----------------3-----3----------------------------------|

Pre-Chorus – (1:27 – 1:31):

    B5             D
E |-2--2-2-----------------| This B5 has the 5th on the
B |-x--x-x-----------------| E string, it’s weird but
G |-4--4-4-----------------| sounds right!!!
D |-x--x-x—(x3)------------|
A |-2--2-2------xx-55555---|
E |------------------------|
    >

Chorus – Distortion, high gain. (1:31 – 1:45):

      D5    F#5     D5    G5
E |--------------------------------|
B |--------------------------------|
G |---7-------------7--------------|
D |---7------4------7-----5--------|
A |---5------4------5-----5--------|
E |----------2------------3--------|

Violin Part (1:45 – 1:49)
     B    C#    D     G   A
E |----------------------------|
B |----------------------------| I don’t think the
G |--4----6-----7---------14---| guitar plays along,
D |--x----x-----x-----5---x----| but go ahead ^_^
A |--2----4-----5-----x---12---|
E |-------------------3--------|

Verse 2 - (1:49 – 2:20):

[Guitar 1 – Notice how it’s the same as the intro w/ the chorus.]

      Bm        G         D
E |---2---------3---------2--------)|   The D chord lasts
B |---3---------3---------3--------)|   twice as long as the
G |---4---------0---------2--------)|   other chords.
D |---4---------0---------0---(x4--)|
A |---2---------2------------------)|   (If you decide to bar
E |-------------3------------------)|   these chords, use D5.)


[Guitar 2 – It’s like Pt. 3 of the first verse.]

       Bm           G            D
E |----2-----2------3-----3------2-----2------2-----2--------|
B |----3-333-3-333--3-333-3-333--3-333-3-333--3-333-3-333----|
G |----4-----4------0-----0------2-----2------2-----2--------|
D |----4-----4------0-----0------0-----0------0-----0----(x4)|
A |----2-----2------2-----2----------------------------------|
E |-----------------3-----3----------------------------------|

Pre-Chorus – (2:20 – 2:22):

    D5            D
E |------------------------|
B |------------------------|
G |-7--7-7-----------------|
D |-7--7-7—(x3)------------|
A |-5--5-5------xx-55555---|
E |------------------------|
    >

Chorus – Distorted, high gain. (2:22 – 2:50):

      D5    F#5     D5    G5
E |--------------------------------|
B |--------------------------------|
G |---7-------------7--------------|
D |---7------4------7-----5----(x2)|
A |---5------4------5-----5--------|
E |----------2------------3--------|

Bridge – (2:50 – 3:18):

     D      F#      D       F#    F#       F#   D C# B E F#
E |-------------------------------------------------------------------|
B |-------------------------------------------------------------------|
G |--7--7-7---------7--7-7-----------------4444--7-6-4-2--------------|
D |--7--7-7--4-4-4--7--7-7--4-4-4--4444444-4444--x-x-x-x-4-4-4-4--(x4)|
A |--5--5-5--4-4-4--5--5-5--4-4-4--4444444-2222--5-4-2-0-x-x-x-x------|
E |----------2-2-2----------2-2-2--2222222---------------2-2-2-2------|
             > > >          > > >

Intro – Acoustic guitar, then Electric (3:18 – 3:33):

      Bm        G         D
E |---2---------3---------2--------)|   The D chord lasts
B |---3---------3---------3--------)|   twice as long as the
G |---4---------0---------2--------)|   other chords.
D |---4---------0---------0---(x4--)|
A |---2---------2------------------)|   (If you decide to bar
E |-------------3------------------)|   these chords, use D5.)

Pre-Chorus – (3:18 – 3:42):

E |------------------------------|
B |------------------------------|
G |--77777777--44444444----------| I’m not sure how the timing is
D |--xxxxxxxx--xxxxxxxx----(x2)--| on the last D… Just listen to the
A |--55555555--22222222----------| song !
E |------------------------------|

    D5            D
E |------------------------|
B |------------------------|
G |-7--7-7-----------------|
D |-7--7-7—(x3)------------|
A |-5--5-5------xx-55555---|
E |------------------------|
    >

Chorus – Distorted, high gain. (3:42 – 4:10):

      D5    F#5     D5    G5
E |--------------------------------|
B |--------------------------------|
G |---7-------------7--------------|
D |---7------4------7-----5----(x2)|
A |---5------4------5-----5--------|
E |----------2------------3--------|

Intro 2 - Until vocals start (4:10 – 4:26):

     G          F#      G        B D F#
E |----------------------------------------|
B |----------------------------------------|
G |--7----7-7----------7--7-7---4-7--------|
D |--7----7-7---4-4----7--7-7---x-x-4—(x2)-|
A |--5----5-5---4-4----5--5-5---2-5-x------|
E |-------------2-2^----------------2------|

E |-----------------------------------|
B |-----------------------------------|
G |-7----7-7--------------------------|
D |-7----7-7--4-4---------------------|
A |-5----5-5--4-4---------------------|
E |-----------2-2/7-------------------|

            
            
Suggest correction
Creating personal tab
Creating personal tab
You can edit any tab online and save it as your Personal.

You can edit, replace or remove any tab part or add personal notes – all changes will be seen only by you.

Personal tabs can be accessed anytime from any device, even offline.
Learn more »
comments
print report bad tab
4 comments total. Showing first comments.
+1 reply
Kallegubben 159 Nov 04, 2007 06:48 AM

A really good work but some tabs coult be much better. But still.... 4 stars.

+1 reply
guitarkoto 10 Dec 09, 2007 12:43 AM

nice tab, this is one of their best album~~

0 reply
RJA5410 16 Mar 10, 2008 05:26 PM

Can somebody, anybody, put a tab up for Bombers

guest
You may want to rate the tab now too:
select rating
Wanna post a correction for this tab? Suggest correction