Oops, an error
Loading. Please wait.

Shadows And Regrets tab

version 1
version 1

Whole song

Interactive

6,677 views 1 this week
1 commentread comment
1 2 3 4 5
2 more votes to show rating
add to favorites
×
Save as Personal and add changes to this tab that will be seen only by you. Learn more ›
×
You can save this tab as Personal to edit and correct it or add notes. All changes will be seen only by you. Learn more »
launch autoscroll
font size
0
reset
how to read this tab
guitar tuner
edit
Autoscroll
slow
fast
+/-
esc
set tempo
stop
Author
hey guys this is my first tab, so plz forgive me for my mistakes.(so plz rate yea...so 
i could understand if i need to tab more or not. thanks)

u can mail me at desilinkinpark@hotmail.com, and leave some comments
intro-acoustic(can be played on a clean electric guitar also, as i do)
(listen to the song for strumin pattern)
4 chords, i have named them here c1,  c2, c3 and c4

E -------------------|c1
B -------------------|
G ---10--------------|
D ---10--------------|
A ---8---------------|
E -------------------|

verse-

continue the intro till-
"i'am back"
change from-
"back in town"(play this)

E -------------------|c2
B -------------------|
G ---10--------------|
D ---10--------------|
A ---7---------------|
E -------------------|

"taaaaa-----uuuu-------|nn"(town)
E ---------------------|c3
B ---------------------|
G ---7-----------------|
D ---7-----------------|
A ---5-----------------|
E ---------------------|

"and everything has changed"
E -------------------|c4
B -------------------|
G ---3----or --------|
D ---3-------8-------|
A ---1-------8-------|
E -----------6-------|

keep repeatin in the exctaly same way.
"i feel"
"feel it daaa-uuu---nn(down)"
"the faces stay the same"

"i see"
"sea shadow--ooo-hoo(shadow)"
"of who we used to be"

"when i drive"
"drive so slo--hooo(slow)"
"through this memoorie(memory..pronounced like this)"
--continue strumin c4
in this part, play this
chorus
"when we were only"(start playin this only from "were")
E -------------------|
B -------------------|
G -----7-------------|
D -----7-------------|
A -----8-------------|
E -------------------|

"kids"
E -------------------|
B -------------------|
G -------------------|
D ------------8------|
A -----c4 or -8------|
E ------------6------|

repeat for-
"and we were"
"best of friends"
"we hoped for the best"
"and let go of the rest"

repeat verse(with distortion)
(play once without singing, then with for...)
(in the 110% same pattern as above"

"i hurt"
"hurt my self"
"say things i take back"
"if i could"
"could retell"
"and make these stories last"
"i see"
"sea shadows"
"of who we'll always be"
"when i drive"
"drive these roads"
"that made our memories"

..play the chorus..

(next part of chorus..(same guitar))

"and shadows"
"and regrets"
"we'll let go"
"of the re-ha-st(rest)"

(play intro along with violin)x2

then,(x2)

"everything has
E -------------------|
B -------------------|
G -----10------------|
D -----10------------|
A -----8-------------|
E -------------------|

changed"
E -------------------|
B -------------------|
G -------------------|
D ---------8---------|
A ---------8---------|
E ---------6---------|

"the faces stay the
E -------------------|
B -------------------|
G -----10------------|
D -----10------------|
A -----8-------------|
E -------------------|

same"
E -------------------|
B -------------------|
G -------------------|
D ---------8---------|
A ---------8---------|
E ---------6---------|

play the chorus chords(acoustic) for--

"when we were"
"only kids"
"and our time"
"could'nt end"
"and how tall did we stand"
"with the world in our hands"

play normal distorted chorus

outro--strum c1

tabbed by aatrey on 14/7/07(submitted late cuz i was chekin it)
thanks.

            
            
Suggest correction
Creating personal tab
Creating personal tab
You can edit any tab online and save it as your Personal.

You can edit, replace or remove any tab part or add personal notes – all changes will be seen only by you.

Personal tabs can be accessed anytime from any device, even offline.
Learn more »
Give kudos to tab author, rate the tab!
1 2 3 4 5
comments
print report bad tab
1 comment total.
0 reply
ChemyVamp 805 Jul 16, 2007 10:51 AM

it's kinda confusing but it's ok

guest
You may want to rate the tab now too:
select rating
Wanna post a correction for this tab? Suggest correction