Oops, an error
Loading. Please wait.

Shadows And Regrets tab

version 2
version 2

Whole song

Interactive

24,879 views 3 this week
20 commentsread comments
1 2 3 4 5
x 20
add to favorites
×
Save as Personal and add changes to this tab that will be seen only by you. Learn more ›
×
You can save this tab as Personal to edit and correct it or add notes. All changes will be seen only by you. Learn more »
launch autoscroll
font size
0
reset
how to read this tab
guitar tuner
edit
Autoscroll
slow
fast
+/-
esc
set tempo
stop
Author
-------------------------------------------------------------------------------
                          SHADOWS AND REGRETS - Yellowcard
-------------------------------------------------------------------------------
Tabbed by: Anthinator
Email: anthinator@hotmail.com

Tuning: D G C F F C

Hey guitar lovers! I have yet to see an accurate tab for this great song!
Believe it or not, that is the correct tuning for this song.
To get to this tuning, first drop all 6 strings down one whole step so you have
D G C F A D.

Then tune the 2nd sting further down to an F as well. (It's easier to simply play the
3rd string and the 2nd string at the same time until they sound equal.)

Once you have that, you need to tune the 1st string even further as well so it
matches the same sound as the 4th string. Once again, play both strings until they sound
same.

You should now have D G C F F C
Unfortunately, this tab is mostly for the rhythm guitarist or the acoustic guitaê
in the recording.
Maybe in the future, i can add the lead.
Enjoy the tab anyway!


INTRO: This is the strumming pattern. Do listen to the song first to hear it yourself.
       The same strumming pattern is played through most of the song.
C|-----0------0-------------0------0------------------------------------------|
F|-----0------0-------------0------0------------------------------------------|
F|-0-0-0--0-0-0-0--0-0--0-0-0--0-0-0-0-0-0------------------------------------|
C|-5-5-5--5-5-5-5--5-5--5-5-5--5-5-5-5-5-5------------------------------------|
G|-x-x----x-x---x--x-x--x-x----x-x---x-x-x------------------------------------|
D|-3-3----3-3---3--3-3--3-3----3-3---3-3-3------------------------------------|

VERSE: Here are the chords for the verse. Repeat same strumming pattern as above.

   "I'm back, back in town..."
C|-0--------------------0------------------0------------------0---------------|
F|-0--------------------0------------------0------------------0---------------|
F|-0--------------------0------------------0------------------0---------------|
C|-5--------------------4------------------2------------------5---------------|
G|-x--------------------x------------------2------------------3---------------|
D|-3--------------------2------------------0----------------------------------|

   "I feel, feel let down..."
C|-0--------------------0------------------0------------------0---------------|
F|-0--------------------0------------------0------------------0---------------|
F|-0--------------------0------------------0------------------0---------------|
C|-5--------------------7------------------2------------------5---------------|
G|-x--------------------x------------------2------------------3---------------|
D|-3--------------------5------------------0----------------------------------|

   "I see, see shadows..."
C|-0--------------------0------------------0------------------0---------------|
F|-0--------------------0------------------0------------------0---------------|
F|-0--------------------0------------------0------------------0---------------|
C|-5--------------------4------------------2------------------5---------------|
G|-x--------------------x------------------2------------------3---------------|
D|-3--------------------2------------------0----------------------------------|

   "When I drive..."
C|-0--------------------0------------------0------------------0---------------|
F|-0--------------------0------------------0------------------0---------------|
F|-0--------------------0------------------0------------------0---------------|
C|-5--------------------7------------------2------------------5---------------|
G|-x--------------------x------------------2------------------3---------------|
D|-3--------------------5------------------0----------------------------------|

   "Memory"
C|-0--------------------------------------------------------------------------|
F|-0--------------------------------------------------------------------------|
F|-0--------------------------------------------------------------------------|
C|-7--------------------------------------------------------------------------|
G|-5--------------------------------------------------------------------------|
D|----------------------------------------------------------------------------|

CHORUS: Once again, same strumming! Ring out the last chord.

   "When we were only kids..."
C|-0--------------------0------------------0------------------0---------------|
F|-0--------------------0------------------0------------------0---------------|
F|-0--------------------0------------------0------------------0---------------|
C|-9--------------------5------------------5------------------4---------------|
G|-7--------------------3------------------x------------------5---------------|
D|-7--------------------3------------------3----------------------------------|

   "And we hoped for the best..."
C|-0--------------------0------------------0----------------------------------|
F|-0--------------------0------------------0------------------0~--------------|
F|-0--------------------0------------------0------------------2~--------------|
C|-9--------------------5------------------5------------------0~--------------|
G|-7--------------------3------------------x------------------x~--------------|
D|-7--------------------3------------------3------------------2~--------------|


INTERLUDE:
C|-0--------------------0------------------0------------------0---------------|
F|-0--------------------0------------------0------------------0---------------|
F|-0--------------------0------------------0------------------0---------------|
C|-5--------------------4------------------2------------------5---------------|
G|-x--------------------x------------------2------------------3---------------|
D|-3--------------------2------------------0----------------------------------|

VERSE 2: Repeat verse 1!

CHORUS 2: Same as the first chorus, just alittle longer. The last chord leads into the bridge.

   "When we were only kids..."
C|-0--------------------0------------------0------------------0---------------|
F|-0--------------------0------------------0------------------0---------------|
F|-0--------------------0------------------0------------------0---------------|
C|-9--------------------5------------------5------------------4---------------|
G|-7--------------------3------------------x------------------5---------------|
D|-7--------------------3------------------3----------------------------------|

   "And we hoped for the best..."
C|-0--------------------0------------------0------------------0---------------|
F|-0--------------------0------------------0------------------0---------------|
F|-0--------------------0------------------0------------------0---------------|
C|-9--------------------5------------------5------------------4---------------|
G|-7--------------------3------------------x------------------5---------------|
D|-7--------------------3------------------3----------------------------------|

   "With shadows and regrets"
C|-0--------------------0------------------0----------------------------------|
F|-0--------------------0------------------0------------------0~--------------|
F|-0--------------------0------------------0------------------2~--------------|
C|-2--------------------5------------------5------------------0~--------------|
G|-2--------------------3------------------x------------------x~--------------|
D|-0--------------------3------------------3------------------2~--------------|

   "...rest"
C|-0~-------------------------------------------------------------------------|
F|-0~-------------------------------------------------------------------------|
F|-0~-------------------------------------------------------------------------|
C|-5~-------------------------------------------------------------------------|
G|-3~-------------------------------------------------------------------------|
D|----------------------------------------------------------------------------|

BRIDGE: Same strumming as usual. These chords are held longer as well. Just listen to 
song to get it. Hold the last chord for twice the normal duration.
C|-0--------------------0------------------0------------------0-----------0---|
F|-0--------------------0------------------0------------------0-----------0---|
F|-0--------------------12-----------------0------------------0-----------0---|
C|-7--------------------12-----------------10-----------------5-----------4---|
G|-5--------------------0------------------x------------------x-----------x---|
D|-5---------------------------------------8------------------3-----------2---|

   "Everything has changed..."
C|-0--------------------0------------------0------------------0---------------|
F|-0--------------------0------------------0------------------0---------------|
F|-0--------------------12-----------------0------------------0---------------|
C|-2--------------------12-----------------5------------------7---------------|
G|-2--------------------0------------------3------------------5---------------|
D|-0---------------------------------------3------------------5---------------|

BREAKDOWN: Make sure you let the last chord simply ring out

   "When we were only kids..."
C|-0--------------------0------------------0------------------0---------------|
F|-0--------------------0------------------0------------------0---------------|
F|-0--------------------0------------------0------------------0---------------|
C|-9--------------------5------------------5------------------4---------------|
G|-7--------------------3------------------x------------------5---------------|
D|-7--------------------3------------------3----------------------------------|

   "And how tall did we stand..."
C|-0--------------------0------------------0------------------0~--------------|
F|-0--------------------0------------------0------------------0~--------------|
F|-0--------------------0------------------0------------------0~--------------|
C|-9--------------------5------------------5------------------7~--------------|
G|-7--------------------3------------------x------------------5~--------------|
D|-7--------------------3------------------3----------------------------------|

CHORUS 3: Chorus is pretty much the same except for the last few chords.

   "We were only kids..."
C|-0--------------------0------------------0------------------0---------------|
F|-0--------------------0------------------0------------------0---------------|
F|-0--------------------0------------------0------------------0---------------|
C|-9--------------------5------------------5------------------4---------------|
G|-7--------------------3------------------x------------------5---------------|
D|-7--------------------3------------------3----------------------------------|

   "And we hoped for the best..."
C|-0--------------------0------------------0------------------0---------------|
F|-0--------------------0------------------0------------------0---------------|
F|-0--------------------0------------------0------------------0---------------|
C|-9--------------------5------------------5------------------4---------------|
G|-7--------------------3------------------x------------------5---------------|
D|-7--------------------3------------------3----------------------------------|

  "With shadows and regrets..."
C|-0--------------------0------------------0------------------0---------------|
F|-0--------------------0------------------0------------------0---------------|
F|-0--------------------0------------------0------------------0---------------|
C|-2--------------------5------------------2------------------5---------------|
G|-2--------------------3------------------2------------------3---------------|
D|-0--------------------3------------------0------------------3---------------|

   "With shadows and regrets..."
C|-0--------------------0------------------0------------------0~--------------|
F|-0--------------------0------------------0------------------0~--------------|
F|-0--------------------0------------------0------------------0~--------------|
C|-2--------------------5------------------2------------------7~--------------|
G|-2--------------------3------------------2------------------5~--------------|
D|-0--------------------3------------------0------------------5---------------|

ENDING: This part is similar to the intro of the song. Just strum the last chord once.
C|-0----------------------------------------------------------0~--------------|
F|-0----------------------------------------------------------0~--------------|
F|-0----------------------------------------------------------0~--------------|
C|-5----------------------------------------------------------5~--------------|
G|-3----------------------------------------------------------x~--------------|
D|------------------------------------------------------------3~--------------|


| /  slide up
| \  slide down
| h  hammer-on
| p  pull-off
| ~  vibrato
| +  harmonic
| x  Mute note
===============================================================================

            
            
Suggest correction
Creating personal tab
Creating personal tab
You can edit any tab online and save it as your Personal.

You can edit, replace or remove any tab part or add personal notes – all changes will be seen only by you.

Personal tabs can be accessed anytime from any device, even offline.
Learn more »
comments
print report bad tab
20 comments total. Showing first comments.
+2 reply
bloodred16 801 Jan 21, 2008 02:02 PM

Very good!! That must have taken you a while to work out that tuning, but it works well so 5/5, I'm guessing the
electric just plays the powercord versions of these cords instead of open. Is there any sort of technical name for this
tuning??

+2 reply
Anthinator 341 Jan 25, 2008 01:32 PM

Thanks! I don't know the exact name for this tuning. I do know that Yellowcard has used it before in "One Year, Six
Months" except in that song they remained in standard turning rather than dropping it down 2 steps.

+2 reply
Svedde 474 Mar 11, 2008 10:38 AM

Very nice! Clearly 5 stars, and it actually is worth tuning the guitar down to play this magnificent song, even though you can play it with regular chords, but this sounds much better! :D Thanx!

guest
You may want to rate the tab now too:
select rating
Wanna post a correction for this tab? Suggest correction