Oops, an error
Loading. Please wait.

Takedown tab

version 1
version 1

Whole song

Interactive

26,109 views 12 this week
11 commentsread comments
1 2 3 4 5
x 14
add to favorites
×
Save as Personal and add changes to this tab that will be seen only by you. Learn more ›
×
You can save this tab as Personal to edit and correct it or add notes. All changes will be seen only by you. Learn more »
launch autoscroll
font size
0
reset
how to read this tab
guitar tuner
edit
Autoscroll
slow
fast
+/-
esc
set tempo
stop
Author
Tabbers playing skills
advanced +
PLS LIKE OUR BAND FAN PAGE @ FACEBOOK -Arista(lucena) http://www.facebook.com/
pages/Arista-Lucena/226729694026830

  
Tuning-

Guitar 1  e b g d A D
Guitar 2  e b g d A D
Guitar 3  e b g d A D
        
Intro-
1.
Guitar1
|---------------------------------------------------------|
|---------------------------------------------------------|
|-------------------------------7~---~~~~~~~~~------------|
|-------------------------------7~------------------------|
|-----5^---5^-------5^---5^-----5~---~~~~~~~~~------------|
|-4-4----4----4-5-5----5----5-----------------------------|
  Guitar2
|-------------------------------------------|
|-------------------------------------------|
|-------------------------------------------|
|------------------------------0~-----------|
|------------------------------0~-Rocket-fx-|
|------------------------------0~pick slide-|
  
2.
  Guitar1
|------------------------------------------------------------|
|------------------------------------------------------------|
|------------------------------------------------------------|
|------------------------------------------------------------|2x
|-----5^---5^-------5^---5^--------5^---------4^---4^--------|
|-4-4----4----4-5-5----5----5--0-0---0--0-0-0----0-----------|
  Guitar2
|------------------------------------------------------------------|
|------------------------------------------------------------------|
|------------------------------------------------------------------|
|-4-4--4--4-4---4-5-5--5--5--5--5--7-7-7-7-7-7-7-7--7--------------|2x
|-4-4--4--4-4---4-5-5--5--5--5--5--5-5-5-5-5-5-5-5--5--------------|
|-4-4--4--4-4---4-5-5--5--5--5--5--0-0-0-0-0-0-0-0--0--------------|

  3.
Guitar1
|--------------------------------------------------------------|
|--------------------------------------------------------------|
|--------------------------------------------------------------|
|------4^---4^---4^------4^--4----------4^--4^---------2^---2^-|
|-5^-5^---5----5---5^-5^----5^--5^-5^-5^--5^----5^-5^-5^--5^---|2x
|--------------------------------------------------------------|
  Guitar2
|----------------------------------------------------------------|
|----------------------------------------------------------------|
|----------------------------------------------------------------|
|-4-4--4--4-4---4-5-5--5--5--5--5--7-7-7-7-7-7-7-7--7------------|
|-4-4--4--4-4---4-5-5--5--5--5--5--5-5-5-5-5-5-5-5--5------------|
|-4-4--4--4-4---4-5-5--5--5--5--5--0-0-0-0-0-0-0-0--0------------|
  
4.
  Guitar1
|--------------------------------------|
|--------------------------------------|
|-----------------------------------7~-|
|------4^---4^---4^------4^--4^-----7~-|
|-5^-5^---5----5---5^-5^----5^--5^--5~-|
|--------------------------------------|
  Guitar2
|-----------------------------------------------|
|-----------------------------------------------|
|-----------------------------------------------|
|-4-4--4--4-4---4-5-5--5--5--5--5---7~----------|
|-4-4--4--4-4---4-5-5--5--5--5--5---5~----------|
|-4-4--4--4-4---4-5-5--5--5--5--5---------------|
  
Verse-nOT SURE-


  I feel things changing when I move
(Its a distance, Its a difference)
 Guitar1
|------------------------------------------------|
|------------------------------------------------|
|------------------------------------------------|
|-----4------2--------2--------------------------|
|-5-------5-------5-------5---------5--5---------|
|------------------------------------------------|

I'll cross this planet without you
(and you might call this a downfall)
 Guitar1
|------------------------------------------------|
|------------------------------------------------|
|------------------------------------------------|
|-----4------2--------2--------------------------|
|-5-------5-------5-------5---------5--5---------|
|------------------------------------------------|

Its one long night that I'm passing through
(Its a dark one what have I done)
 Guitar1

|------------------------------------------------|
|------------------------------------------------|
|------------------------------------------------|
|-----4------2--------2--------------------------|
|-5-------5-------5-------5---------5--5---------|
|------------------------------------------------|
Its one long night...
 Guitar2
|-----------------------------|
|-----------------------------|
|-------0--2---0---0--2p0-----|
|-----4------4---4------------|Not sure of this
|---5-------------------------|
|-----------------------------|

  
Chorus-F#m G D 3x 
Don't turn your back on me now
You can't do this 

  Guitar1
|------------------------------------------------------------------|
|------------------------------------------------------------------|
|------------------------------------------------------------------|
|-4-4--4--4-4---4-5-5--5--5--5--5--7-7-7-7-7-7-7-7-7-7-7-7-7-7-7-7-|
|-4-4--4--4-4---4-5-5--5--5--5--5--5-5-5-5-5-5-5-5-5-5-5-5-5-5-5-5-|
|-4-4--4--4-4---4-5-5--5--5--5--5----------------------------------|
  Guitar2
|------------------------------------------------------------------|
|------------------------------------------------------------------|
|------------------------------------------------------------------|
|-4-4--4--4-4---4-5-5--5--5--5--5--0-0-0-0-0-0-0-0-0-0-0-0-0-0-0-0-|
|-4-4--4--4-4---4-5-5--5--5--5--5--0-0-0-0-0-0-0-0-0-0-0-0-0-0-0-0-|
|-4-4--4--4-4---4-5-5--5--5--5--5--0-0-0-0-0-0-0-0-0-0-0-0-0-0-0-0-|

 Guitar3=violin

<----3x------><---------3x------><-----------2x-------------->

|-------------|------------------|-10------------------------|
|-------------|------------------|----10--7--8-10--8----7----|
|-11-999-7----|--12---999--7-----|---------------------------|
|-------------|------------------|---------------------------|
|-------------|------------------|---------------------------|
|-------------|------------------|---------------------------|

Don't say you can live without
You can't do this alone

  Guitar1
|------------------------------------------------------------------|
|------------------------------------------------------------------|
|------------------------------------------------------------------|
|-4-4--4--4-4---4-5-5--5--5--5--5--7-7-7-7-7-7-7-7--7--------------|
|-4-4--4--4-4---4-5-5--5--5--5--5--5-5-5-5-5-5-5-5--5--------------|
|-4-4--4--4-4---4-5-5--5--5--5--5----------------------------------|
  Guitar2
|------------------------------------------------------------------|
|------------------------------------------------------------------|
|------------------------------------------------------------------|
|-4-4--4--4-4---4-5-5--5--5--5--5--0-0-0-0-0-0-0-0-0---------------|
|-4-4--4--4-4---4-5-5--5--5--5--5--0-0-0-0-0-0-0-0-0---------------|
|-4-4--4--4-4---4-5-5--5--5--5--5--0-0-0-0-0-0-0-0-0---------------|


 Guitar3=violin

<----3x------><---------3x------><-----------2x-------------->

|-------------|------------------|-10------------------------|-----------9-10-12-|
|-------------|------------------|----10--7--8-10--8----7----|-10--12-12---------|
|-11-999-7----|--12---999--7-----|---------------------------|-------------------|
|-------------|------------------|---------------------------|-------------------|
|-------------|------------------|---------------------------|-------------------|
|-------------|------------------|---------------------------|-------------------|
How did I end up like this, the lonely one,
Your greatest take down?


  Guitar1
|------------------------------------------------------------------|
|------------------------------------------------------------------|
|------------------------------------------------------------------|
|-4-4--4--4-4---4-5-5--5--5--5--5--7-7-7-7-7-7-7-7--7--------------|
|-4-4--4--4-4---4-5-5--5--5--5--5--5-5-5-5-5-5-5-5--5--------------|
|-4-4--4--4-4---4-5-5--5--5--5--5----------------------------------|
  Guitar2
|------------------------------------------------------------------|
|------------------------------------------------------------------|
|------------------------------------------------------------------|
|-4-4--4--4-4---4-5-5--5--5--5--5--0-0-0-0-0-0-0-0-0---------------|
|-4-4--4--4-4---4-5-5--5--5--5--5--0-0-0-0-0-0-0-0-0---------------|
|-4-4--4--4-4---4-5-5--5--5--5--5--0-0-0-0-0-0-0-0-0---------------|

 Guitar3=violin

<----3x------><---------3x-------->

|-14-121212-10-|--15-121212-10----|-17----17---------14---17-------------|
|--------------|------------------|----15------15-17---15----15--17-15---|
|--------------|------------------|---------14---------------------------|
|--------------|------------------|--------------------------------------|
|--------------|------------------|--------------------------------------|
|--------------|------------------|--------------------------------------|
  
You take me down


  Guitar1
|------------------------------------------------------------------|
|------------------------------------------------------------------|
|------------------------------------------------------------------|
|-4-4--4--4-4---4-5-5--5--5--5--5--7-7-7-7-7-7-7-7--7--------------|
|-4-4--4--4-4---4-5-5--5--5--5--5--5-5-5-5-5-5-5-5--5--------------|
|-4-4--4--4-4---4-5-5--5--5--5--5----------------------------------|
  Guitar2
|------------------------------------------------------------------|
|------------------------------------------------------------------|
|------------------------------------------------------------------|
|-4-4--4--4-4---4-5-5--5--5--5--5--0-0-0-0-0-0-0-0-0---------------|
|-4-4--4--4-4---4-5-5--5--5--5--5--0-0-0-0-0-0-0-0-0---------------|
|-4-4--4--4-4---4-5-5--5--5--5--5--0-0-0-0-0-0-0-0-0---------------|

 Guitar3=violin

<----3x------><---------2x-------->

|-14-121212-10-|--15-121212-10----|--15--12--10--12--10------------------|
|--------------|------------------|--------------------------------------|
|--------------|------------------|--------------------------------------|
|--------------|------------------|--------------------------------------|
|--------------|------------------|--------------------------------------|
|--------------|------------------|--------------------------------------|

  
Verse2-
  Left last night with a long goodbye
(We cement why, through a phone line)



  Guitar1
|------------------------------------------------------------------|
|------------------------------------------------------------------|
|------------------------------------------------------------------|
|----------------------------------777777777777777777777777--------|
|-444444444444444-555555555555555--555555555555555555555555--------|
|-444444444444444-555555555555555----------------------------------|


Guitar2 trem.
|-----------------------------------------|
|-----------------------------------------|
|-----------------------------------------|
|-----------------------------------------|
|-5-55-9*--55-77*-55-77*-55-77*-55--------|
|-----------------------------------------|

I told you thoughts that multiply
(That I don't know how to let go)


  Guitar1
|------------------------------------------------------------------|
|------------------------------------------------------------------|
|------------------------------------------------------------------|
|----------------------------------777777777777777777777777--------|
|-444444444444444-555555555555555--555555555555555555555555--------|
|-444444444444444-555555555555555----------------------------------|

Guitar2 trem.
|-----------------------------------------|
|-----------------------------------------|
|-----------------------------------------|
|-----------------------------------------|
|-5-55-9*--55-77*-55-77*-55-77*-55--------|
|-----------------------------------------|

We've been here many times before
(I am empty, when you leave me)


  Guitar1
|------------------------------------------------------------------|
|------------------------------------------------------------------|
|------------------------------------------------------------------|
|----------------------------------777777777777777777777777--------|
|-444444444444444-555555555555555--555555555555555555555555--------|
|-444444444444444-555555555555555----------------------------------|


Guitar2 trem.
|-----------------------------------------|
|-----------------------------------------|
|-----------------------------------------|
|-----------------------------------------|
|-5-55-9*--55-77*-55-77*-55-77*-55--------|
|-----------------------------------------|

What's one more?
 Guitar2
|-----------------------------|
|-----------------------------|
|-------0--2---0---0--2p0-----|
|-----4------4---4------------|Not sure of this
|---5-------------------------|
|-----------------------------|

  
Do Chorus-
Don't turn your back on me now
You can't do this 
Don't say you can live without
You can do this alone
How did I end up like this, the broken one,
Your greatest take down?
You take me down

  solo-

Guitar1
|-------------------------------------------------------------------|
|-------------------------------------------------------------------|
|---7----7-------7----7------7----7------7---7------7---7----7---7--|
|----------7------------7----------7-----------7----------7-------7-|
|-5---5-------5----5-------5---5-------5----5-----5---5-----5--5----|
|-------------------------------------------------------------------|
  Guitar2
|-----------------------------------------------------------------|
|-----------------------------------------------------------------|
|-4---------------4-----------------------------------------------|
|-4--4---5---0----4---4---5---0---2---4---5---7-------------------|
|-2--4---5---0----2---4---5---0---2---4---5---7-------------------|
|----4---5---0--------4---5---0---2---4---5---7-------------------|

Guitar3
|-12--14--15-17-|
|---------------|
|---------------|
|---------------|
|---------------|
|---------------|

|---17------------14-----17-15--14-------17------------14--------------|
|-15--15-17-15-17---17-15----------17--15--15-17-15-17---17-15-17--15--|
|----------------------------------------------------------------------|
|----------------------------------------------------------------------|
|----------------------------------------------------------------------|
|----------------------------------------------------------------------|

|----17-15--14-----------10----|
|-15------------17-15-17----15-|
|------------------------------|
|------------------------------|
|------------------------------|
|------------------------------|

  
Guitar1
|-----two times---------------|

|-----------------------------|-----------------------------------------------------|
|-----------------------------|-----------------------------------------------------|
|-444444----------------------|-----------------------------------------------------|
|-444444-444444-55555--000000-|-00000000-22222222-44444444-5555555-777777777--7~----|
|-222222-444444-55555--000000-|-00000000-22222222-44444444-5555555-777777777--5~----|
|--------444444-55555--000000-|-00000000-22222222-44444444-5555555-777777777-~------|


Guitar2
|-----------------------------------------17---------------------------|
|-14h15p14p12-10^---7--9-/--10^-------15------15--10-8-7---------------|
|-------------------------------9^-------------------------------------|
|---------------------------------------------------------7-5-4--------|
|----------------------------------------------------------------7--5--|
|----------------------------------------------------------------------|

|----------------------------------------------------------------------|
|----------------------------------------------------------------------|
|--7-666---7-666-7-----7-666--696--666---s9^---------------------------|
|-7------7------------------7----7-------------------------------------|
|----------------------------------------------------------------------|
|----------------------------------------------------------------------|

|-------17-----17-----------------------------------------|
|-15--15--17-15--17-15-14-15-14---------------------------|
|------------------------------14-12-14-12-11--11---14----|
|--------------------------------------------12-------14--|
|---------------------------------------------------------|
|---------------------------------------------------------|

|--------------------------------------------------------------|
|----------------------------------------------------------9^--|
|------------------------6-7^-----------------------9-11-12----|
|---------------------7-------------9-11-12-9-11-12------------|
|-------7-9-10---------------9-10-12---------------------------|
|-7-9-10-------------------------------------------------------|


|-----------------------------------------------|
|------------------------------12-14--12-14-15--|
|---------11-12-14-11-12-14-14------14----------|
|-11-12-14--------------------------------------|
|-----------------------------------------------|
|-----------------------------------------------|



|-12-14-12-11-10--11--12-14-12-11-10-11---9-10~-|
|---------------------------------------10------|
|-----------------------------------------------|
|-----------------------------------------------|
|-----------------------------------------------|
|-----------------------------------------------|

or try this one..jejej/..
|-9h10p9p7--------------------10-10/17-------------------------------------|
|----------10----7-8-8/10-------------15-----------------------------------|
|------------------------9~~------------14---------------------------------|
|-----------------------------------------17-16----------------------------|
|-----------------------------------------------17-------------------------|
|--------------------------------------------------17-16-14-12~~\----------|

|--------------------------------------------------------------------------|
|---------------------------5p0-5p3-5p3-5/7~-------------------------------|
|-7p6-6-7p6-7p6-6-7p6-7p6-6------------------------------------------------|
|----7---------7---------7-------------------------------------------------|
|--------------------------------------------------------------------------|
|--------------------------------------------------------------------------|

|----17p12-----17----------------------------------------------------------|
|-15------15p14--15-----15p14----------------------------------------------|
|------------------18p14-----14--14----------------------------------------|
|------------------------------17--17p16--16~--/19-14~~--------------------|
|---------------------------------------17---------------------------------|
|--------------------------------------------------------------------------|

|---------------------------------------------------------------------------|
|----------------------------------------------------------------10~--------|
|--------------------------------------------------------9-11-12------------|
|-------------------------9-11-12~-------9-11-12-9-11-12--------------------|
|-7~-7-9-10-9-10-12-10-12-------------12------------------------------------
|---------------------------------------------------------------------------|

|-------------------------------------------------12h14p12----12-----------|
|----------------12-------12-14-12-14----15-14-15----------15--------------|
|-------11-12-14----12-14-------------14-----------------------------------|
|-12-14--------------------------------------------------------------------|
|--------------------------------------------------------------------------|
|--------------------------------------------------------------------------|

|-12h14p12----12-12h14p12----12--------------------------------------------|
|----------15-------------15----14h15p14----14-15~~~-----------------------|
|----------------------------------------14--------------------------------|
|--------------------------------------------------------------------------|
|--------------------------------------------------------------------------|
|--------------------------------------------------------------------------|



Bridge-
I won't get by 
I won't heal in time
I won't get by

Guitar1 many x
|-----------------------------------------|
|-----------------------------------------|
|---------7-------------7------7----------|
|---7---7----7----7---7----7--------------|
|-5---5---------5----5-------5------------|3X
|-----------------------------------------|


  Repeat Chorus-
  You take me down
  
OUTRO-  3.
Guitar1
|--------------------------------------------------------------|
|--------------------------------------------------------------|
|--------------------------------------------------------------|
|------4^---4^---4^------4^--4^---------4^--4^---------2^---2^-|
|-5^-5^---5----5---5^-5^----5^--5^-5^-5^--5^----5^-5^-5^--5^---|2x
|--------------------------------------------------------------|
  Guitar2
|----------------------------------------------------------------|
|----------------------------------------------------------------|
|----------------------------------------------------------------|
|-4-4--4--4-4---4-5-5--5--5--5--5--7-7-7-7-7-7-7-7--7------------|2x
|-4-4--4--4-4---4-5-5--5--5--5--5--5-5-5-5-5-5-5-5--5------------|
|-4-4--4--4-4---4-5-5--5--5--5--5--------------------------------|
  
4.
  Guitar1
|--------------------------------------|
|--------------------------------------|
|-----------------------------------7~-|
|------4^---4^---4^------4^--4^-----7~-|
|-5^-5^---5----5---5^-5^----5^--5^--5~-|
|--------------------------------------|

            
            
Suggest correction
Creating personal tab
Creating personal tab
You can edit any tab online and save it as your Personal.

You can edit, replace or remove any tab part or add personal notes – all changes will be seen only by you.

Personal tabs can be accessed anytime from any device, even offline.
Learn more »
comments
print report bad tab
11 comments total. Showing first comments.
0 reply
funken 10 Jul 18, 2007 02:46 AM

not bad('_')i love this song .It really rocks!

0 reply
athsmador 279 Jul 20, 2007 07:33 PM

sounds good

0 reply
saroit 10 Nov 08, 2007 04:43 PM

wow!this is great

guest
You may want to rate the tab now too:
select rating
Wanna post a correction for this tab? Suggest correction