Oops, an error
Loading. Please wait.

View From Heaven Acoustic chords

version 6
version 6

Whole song

Interactive

510 views 18 this week
no commentswrite comment
1 2 3 4 5
2 more votes to show rating
add to favorites
×
Save as Personal and add changes to this tab that will be seen only by you. Learn more ›
×
You can save this tab as Personal to edit and correct it or add notes. All changes will be seen only by you. Learn more »
launch autoscroll
font size
0
reset
transpose
0
reset
simplify chords
display chords
guitar tuner
edit
Autoscroll
slow
fast
+/-
esc
set tempo
stop
Author
Difficulty
About this tab version
In this version I have included the proper chords, the correct amount of times they are played, the variations between each chorus, and the correctly tabbed filler for this song. There is not a tab for this song that is correct and complete and simple to understand. This tab should be accepted because it is all three of these things. Was this info helpful? Yes No
Strumming
There is no strumming pattern for this song yet. and get +5 IQ
-------------------------------------------------------------------------------
                                  Yellowcard
                             Ocean Avenue Acoustic
                           View From Heaven Acoustic
-------------------------------------------------------------------------------

Tabbed by Evan Keanu
Email: evankeanu@gmail.com

Tuning: Standard (E A D G B e)

Chords (In order of appearance)

            G5     Gsus4/C     G/B     Dsus4/A     Am     Dsus4

e|----------3------3-----------3-------3-----------0------3----------|
B|----------3------3-----------3-------3-----------1------3----------|
G|----------0------0-----------0-------0-----------2------2----------|
D|----------0------x-----------x-------0-----------2------0----------|
A|----------x------3-----------2-------0-----------0------x----------|
E|----------3------x-----------x-------x-----------x------x----------|


[Intro] 

G5  Gsus4/C  G/B  Dsus4/A     ]
                              ]     x4 (The last time through, only play
Gsus4/C  G/B                  ]         the first half of the intro)


[Verse 1]
             G5
I'm just so tired
            Am
Won't you sing me to sleep
    Gsus4/C
And fly through my dreams
    G5           Dsus4         G5
So I can hitch a ride with you tonight
           Am
And get away from this place
           Gsus4/C
Have a new name and face
       G5             Dsus4             G5
I just ain't the same without you in my life


[Filler]

e|--3p2------------------------------------------------------|     ]
B|-------5p3--5p3-------1p0-----0----------------------------|     ]
G|-----------------5p4-------2-----2p0------------0-------0--|     ]
D|--------------------------------------2p0--0h2-----0h2-----|     ]
A|-----------------------------------------------------------|     ]
E|-----------------------------------------------------------|     ]
                                                                   ]     x2
e|-----------------------------|                                   ]
B|-----------------------------|                                   ]
G|--2p0--4p0--5p0--4h5p4--2p0--|     (Last little bit can be       ]
D|-----------------------------|      played as "4h5p4--2p0"       ]
A|-----------------------------|      or "4h5p4/2p0")              ]
E|-----------------------------|                                   ]

G5  Gsus4/C  G/B  Dsus4/A     ]
                              ]     x2 (This plays over the part above at the same time)
Gsus4/C  G/B                  ]


[Verse 2]
            G5
Late night drives
       Am
all alone in my car
     Gsus4/C
I can't help but start
 G5             Dsus4                G5
Singing lines from all our favorite songs
          Am
And melodies in the air
        Gsus4/C
Singing life just ain't fair
 G5                 Dsus4                     G5     Dsus4
Sometimes I still just can't believe you're gone


[Chorus]
         G5                  Gsus4/C
And I’m sure the view from heaven
          G/B               Gsus4/C
Beats the hell out of mine here
         G5                Gsus4/C
And if we all believe in heaven
               G/B                    Gsus4/C
Maybe we'll make it through one more year

Down here

G5  Gsus4/C  G/B  Dsus4/A     ]
                              ]     x2
Gsus4/C  G/B                  ]



[Verse 3]
           G5
Feel your fire
           Am
When it’s cold in my heart
      Gsus4/C
And things sorta start
  G5             Dsus4              G5
Reminding me of my last night with you
        Am
I only need one more day
         Gsus4/C
Just one more chance to say
  G5               Dsus4            G5     Dsus4
I wish that I had gone up with you too


[Chorus]
         G5                  Gsus4/C
And I’m sure the view from heaven
          G/B               Gsus4/C
Beats the hell out of mine here
         G5                Gsus4/C
And if we all believe in heaven
               G/B                    Gsus4/C
Maybe we'll make it through one more year

Down here


[Bridge]

G/B  Dsus4/C

Gsus4/C
You won't be coming back
G/B       Dsus4/C       Gsus4/C
And I didn't get to say goodbye (goodbye)
G/B             Dsus4       Gsus4/C     Dsus4
I really wish I got to say goodbye


[Chorus]
    I’m  sure  the  view  from  heaven
e|--------------------------------------------------|
B|--------3-----------3-----------3-----------3-----|
G|-----0-----0-----------0-----0-----0-----------0--|
D|--------------------------------------------------|
A|--------------2--2--------3-----------3--3--------|
E|--3-----------------------------------------------|
    Beats  the  hell  out  of  mine  here
e|--------------------------------------------------|
B|--------3-----------3-----------3-----------3-----|
G|-----0-----0-----------0-----0-----0-----------0--|
D|--------------------------------------------------|
A|--------------------------3-----------3--3--------|
E|--0-----------0--0--------------------------------|
    And  if  we  all  believe  in  heaven                 (The second half is the same as the first)
e|--------------------------------------------------|
B|--------3-----------3-----------3-----------3-----|
G|-----0-----0-----------0-----0-----0-----------0--|
D|--------------------------------------------------|
A|--------------2--2--------3-----------3--3--------|
E|--3-----------------------------------------------|
    Maybe  we'll  make  it  through  one  more  year
e|--------------------------------------------------|
B|--------3-----------3-----------3-----------3-----|
G|-----0-----0-----------0-----0-----0-----------0--|
D|--------------------------------------------------|
A|--------------------------3-----------3--3--------|
E|--0-----------0--0--------------------------------|

    Down here


[Outro]
             G5             Gsus4/C
I hope that all is well in heaven
              G/B             Gsus4/C
Cause it's all shot to hell down here
         G5                Gsus4/C
I hope that I find you in heaven
            G/B
Cause I’m so...
                  Gsus4/C
Lost without you down here

You won't be coming back
G/B       Dsus4/C       Gsus4/C
And I didn't get to say goodbye (goodbye)
G/B             Dsus4       Gsus4/C
I really wish I got to say goodbye



| h  hammer-on
| p  pull-off



https://www.youtube.com/watch?v=InnjzlVYUss

I based this tab off of the audio above. If there are any questions, concerns,
and/or suggestions please leave a comment or email me at evankeanu@gmail.com. 

Thanks everybody! Enjoy!!!

            
            
Suggest correction
Creating personal tab
Creating personal tab
You can edit any tab online and save it as your Personal.

You can edit, replace or remove any tab part or add personal notes – all changes will be seen only by you.

Personal tabs can be accessed anytime from any device, even offline.
Learn more »
Give kudos to tab author, rate the tab!
1 2 3 4 5
comments
print report bad tab
guest
You may want to rate the tab now too:
select rating
Wanna post a correction for this tab? Suggest correction