Oops, an error
Loading. Please wait.

Herida De Amor tab

version 1
version 1

Whole song

by Yndio
387 views 3 this week
no commentswrite comment
1 2 3 4 5
3 more votes to show rating
add to favorites
×
Save as Personal and add changes to this tab that will be seen only by you. Learn more ›
×
You can save this tab as Personal to edit and correct it or add notes. All changes will be seen only by you. Learn more »
launch autoscroll
font size
0
reset
how to read this tab
guitar tuner
edit
Autoscroll
slow
fast
+/-
esc
set tempo
stop
Hola, este es mi tab de esta gran cancion. OJALA Y LA SUBAN AL ATAME.
Bueno, yo se que ya estan los acordes de esta cancion hecha por otra
persona que mando su propia colaboracion......y esta bastantemente bien.
Lo unico que le falto fue el SOLO de esta cancion.  Y bueno, apeticion
mia, aqui les mando este solo que es muy sencillo y muy facil pero
tambien es un SOLO con mucho sentimiento y eso es lo unico que cuenta
o me equiboco?   Bueno, aqui les mando esto..........

Intro
         E         (x2)   D    A
e|-----------0--------||--2----0--|
b|-------------0---0--||--3----2--|
g|-------1-------1----||--2----2--|  Todo esto se vuelve a repetir.
d|-----2--------------||--0----2--|
a|---2----------------||-------0--|
E|-0------------------||----------|

                 DOLOR.......       DE AMOR.........   TU...
e|----------0-------------------0-----------------4--------|
b|------------0---0---------------0---0---------5---5---5--|
g|-------1------1-------------1-----1---------6-------6----|
d|-----2--------------------2---------------6--------------|
a|---2--------------------2---------------4----------------|
E|-0--------------------0----------------------------------|

   ADIOS........ ME......DIO.....Y TAMBIEN...............MATO.....
e|---------0-----------------------------------------0-----------|
b|-------2---2---2----------4----------2---------------0---0-----|
g|-----2-------2----------4----------2------------1------1-------|
d|---2------------------4----------2------------2----------------|
a|-0------------------2----------0------------2------------------|
E|------------------------------------------0--------------------|

.................EN MI..............LA ILUSION......AQUI EN MI CORAZON...
e|---------4-------------------0----------------------------------------|
b|-------5---5---5-----------2---2---2-------------4--------2-----------|
g|-----6-------6-----------2-------2-------------4--------2-------------|
d|---6-------------------2---------------------4--------2---------------|
a|-4-------------------0---------------------2--------0-----------------|
E|----------------------------------------------------------------------|

  ........LLEVO UNA HERDIA CRUEL......QUE NO PODRA CERRAR      NUNCA JAAAAAA......
e|------------------4~-------------4~-------------4~-----------0-------------|
b|------------------4~-------------5~-------------4~---------2---2---2-------|
g|-------1----------4~-------------6~-------------4~-------2-------2---------|
d|-----2------------6~----------6-----------------6~-----2-------------------|
a|---2-----------6----------4-----------------6--------0---------------------|
E|-0----------4---------------------------4----------------------------------|

..MMASSSSSSS......DOOLOR...              U....UHH....DE AMOR
e|-------------------------------1~------2-----0-------------------0---------|
b|-------4---------2---------------------3-----2---------------------0---0---|
g|-----4---------2-------------1---------2-----2-----------------1-----1-----|
d|---4---------2-------------2-----------0-----2---------------2-------------|
a|-2---------0-------------2-------------------0-------------2---------------|
E|-----------------------0---------------------------------0-----------------|

                ADIOSSS...
e|---------0---------------
b|-----------0---0---------
g|-------1-----1-----------(OK, EL CONCEPTO DE ESTO ES DE QUE NADAMAS TOQUES LOS
d|-----2------------------- ACORDES UNO POR UNO Y SE ESCUCHARA MUY BIEN. ESTOS SON
a|---2--------------------- LOS ACORDES----E,D,A,C#m,B,G#m,F#,F#m,Y SE INCLUYE EL B7)
E|-0-----------------------

EL OTRO TAB QUE ESTA AQUI POR LA OTRA PERSONA SIRVE MUCHO
DE GUIA.......BASICAMENTE EN ESO FUE EN LO QUE ME BASE.

OK, AHORA LO PROMETIDO............EL SOLO

CLAVE: ~ = dejas el tono sonar
       d = doblar la cuerda
    / y \= resbalar la cuerda (slide)

SOLO: yo hago a este solo con una Distorcion fuerte y un Delay exacto con la puntuacion.

e|--10/12~~---12/14~~---12~~~-|--17~~~\12~~-|--16~~--14~~~-|
b|----------------------------|-------------|--------------|
g|----------------------------|-------------|--------------|
d|----------------------------|-------------|--------------|
a|----------------------------|-------------|--------------|
E|----------------------------|-------------|--------------|

e|--16~~-14/12~~~-|--12/14~~--14\12~~-|--17~~~\12~~-|
b|----------------|-------------------|-------------|
g|----------------|-------------------|-------------|
d|----------------|-------------------|-------------|
a|----------------|-------------------|-------------|
E|----------------|-------------------|-------------|

e|--16~~--14~~~--|--19~~~~~~d~~~~~~~~~-|-------------------|
b|---------------|---------------------|-------------------|
g|---------------|---------------------|-------------------|
d|---------------|---------------------|-------------------|
a|---------------|---------------------|-------------------|
E|---------------|---------------------|-------------------|


ALGUNA DUDA A MI CORREO JAGUARSOLITARIO1@  ME LLAMO JOSE.
ESTA CANCION VA DEDICADA A LA MUJER QUE MAS QUIERO, ELLA
SABE QUIEN ES.......ELLA ES TODO EN MI VIDA Y OJALA Y NUNCA
ACABE LO NUESTRO..........TE QUIERO MUCHO MI NENA PRECIOSA.

            
            
Suggest correction
Creating personal tab
Creating personal tab
You can edit any tab online and save it as your Personal.

You can edit, replace or remove any tab part or add personal notes – all changes will be seen only by you.

Personal tabs can be accessed anytime from any device, even offline.
Learn more »
Give kudos to tab author, rate the tab!
1 2 3 4 5
comments
print report bad tab
guest
Wanna post a correction for this tab? Suggest correction