Oops, an error
Loading. Please wait.

Evil Eye tab

version 2
version 2

Whole song

3,324 views 12 this week
5 commentsread comments
1 2 3 4 5
2 more votes to show rating
add to favorites
×
Save as Personal and add changes to this tab that will be seen only by you. Learn more ›
×
You can save this tab as Personal to edit and correct it or add notes. All changes will be seen only by you. Learn more »
launch autoscroll
font size
0
reset
how to read this tab
guitar tuner
edit
Autoscroll
slow
fast
+/-
esc
set tempo
stop
Author
Difficulty
                                    EVIL EYE


  Q=146
 4/4
  Gtrs I, V
|-------------|-------------------|------------7--12-10-|--8---7--------------|
|-------------|---------------18--|-17--15-13--0--------|------0-10--9----10--|
|-------21----|-----------19------|----------------9--7-|--5------------------|
|----------24-|-22--19--------15--|-14--12-10-----------|---------7--6-----7--|
|-------------|-----------17------|---------------------|---------------------|
|-------24-22-|-20--17------------|---------------------|---------------------|
|
| Gtr II
|-------------|-------------------|---------------------|---------------------|
|-------------|-------------------|---------------------|---------------------|
|-------------|------2--0---------|---------------------|---------------------|
|-------------|------------3------|---------------------|---------------------|
|-------------|----------------5--|--7---9----11--------|-12------------------|
|-------------|-------------------|---------------12----|-----10----12--0-----|
|
| Gtr VI
|-------------|-------------------|---------------------|---------------------|
|-------------|-----14-12-10------|--9-------------9----|---------------------|
|-------------|-------------------|---------------------|-----12--------2-----|
|-------------|-------------------|------9----11--------|-12------------------|
|-------------|---------------10--|---------------------|-----------12--------|
|-------------|-------------------|---------------------|---------------------|


|---------12-10-|-8--------10--13--|
|-10------------|----10------------|
|----------9--7-|-5---------7--10--|
|--7------------|-----7------------|
|---------------|------------------|
|---------------|------------------|
|
|---------------|------------------|
|---------------|------------------|
|---------------|------------------|
|---------------|------------------|
|--0------------|----12-10--8------|
|---------------|--------------10--|
|
|---------------|------------------|
|--2------------|----14-12-10------|
|---------------|------------------|
|---------------|------------------|
|---------------|--------------10--|
|---------------|------------------|


|-12--10-8--7--12-10-|--8---7-------7-10-13-(13)-12-10--|
|-----------0--------|------0-10--9-8-12-15-(15)-13-12--|
|--9---7-5------9--7-|--5---------9---------------------|
|--------------------|---------7------------------------|
|--------------------|----------------------------------|
|--------------------|----------------------------------|
|
|--------------------|----------------------------------|
|--------------------|----------------------------------|
|--------------------|----------------------------------|
|--------------------|----------------------------------|
|--------------------|-12-------------------------------|
|-12--14---16--12----|-----10----12-----------0---------|
|
|--------------------|----------------------------------|
|--9------------9----|----------------------------------|
|--------------------|-----12-----------------2---------|
|------9---11--------|-12-------------------------------|
|--------------------|-----------12---------------------|
|--------------------|----------------------------------|


|-12----------|---------------|-----------------|---------------|
|-13----------|---------------|-----------------|---------------|
|-------------|---------------|-----------------|---------------|
|-------------|---------------|-----------------|---------------|
|-------------|---------------|-----------------|---------------|
|-------------|---------------|-----------------|---------------|
|
|-------------|---------------|-----------------|---------------|
|-------------|---------------|-----------------|---------------|
|-------------|---------------|-----------------|---------------|
|-------------|---------------|-----------------|---------------|
|--0----------|---------------|-----------------|---------------|
|-------------|---------------|-----------------|---------------|
|
| Gtr III
|-------------|---------------|-----------------|---------------|
|-------------|---------------|-----------------|---------------|
|-------------|---------------|-----------------|---------------|
|-------------|---------------|-----------------|--------0------|
|---------3-2-|-3--5-7-8------|-------------0---|----5-3-3-2----|
|-------------|-----------7-5-|-7--8-10-12----4-|-5-------------|


  Gtr III
|-3-----3-8------------------|------------------|----------------|
|---5---5---8----------------|------------------|----------------|
|---5-4-----9-9--------------|------------------|----------------|
|---------------10-(10)------|------------------|----------------|
|---------------10-(10)------|--------------2-0-|-2-2-3-5-7------|
|------------------------8-7-|-8--10-12-13------|------------5-4-|
|
| Gtr IV
|----------------------------|------------------|----------------|
|----------------------------|------------------|----------------|
|-5--------------------------|------------------|----------------|
|-5--------------------------|------------------|----------------|
|-3----------------------0---|------------------|-----0-2-3------|
|--------------------------4-|-5---7--8-10--3-2-|-3-3--------1-0-|


                                                                Q=220
|-----------3-5--8-10-13-12-10------------|-------------------|---------|
|-------3-5-6---12----17----13-12-10-9-10-|-(10)--------------|---------|
|---5-4-5---------------------------------|-------------------|---------|
|-----------------------------------------|-------------------|---------|
|-----------------------------------------|-------------------|---------|
|-5---------------------------------------|-------------------|---------|
|
|-----------------------------------------|-------------------|---------|
|-----------------------------------------|-------------------|---------|
|-----------------------------------------|---2---------------|--(2)----|
|---------3---------2---------------------|---2---------------|--(2)----|
|-----------------------------------------|---0---------------|--(0)----|
|-1-----------------------------0---------|-------------------|---------|
|
| Gtr VII
|-----------------------------------------|-------17--(17)----|-(17)----|
|-----------------------------------------|-------------------|---------|
|-----------------------------------------|-------------------|---------|
|-----------------------------------------|-------------------|---------|
|-----------------------------------------|-------------------|---------|
|-----------------------------------------|-------------------|---------|


|--------------------|-----------------------|-------------------|
|--------------------|-----------------------|-----------------5-|
|--------------------|-----------------------|-------2---1-----4-|
|--------------------|-----------------------|---------3---2-----|
|----12----11--------|-------------------3-2-|-(2)-3---------2---|
|-0-----13----12-0-0-|-13-10-12-8-8-7--5-1-0-|-(0)-----------0---|
|
|--------------------|-----------------------|-------------------|
|--------------------|-----------------------|-----------------5-|
|-----2-----1--------|-----------------------|-------2---1-----4-|
|--------3-----2-----|--3--------------------|---------3---2-----|
|-2------------------|-----5--7----------3-2-|-(2)-3---------2---|
|-0--------------0-0-|----------8-8-7--5-1-0-|-(0)-----------0---|


  Gtrs III, IV
|-13-12-10-8-12-10-8-7-8-10-8--7----|----------------|-----------------|
|-----------------------------10-9--|----------------|-----------------|
|-----------------------------------|----2---1-------|-----------------|
|-----------------------------------|------3---2-----|-3---------------|
|-----------------------------------|-2--------------|---5-7-------3-2-|
|-----------------------------------|-0----------0-0-|-------8-7-5-1-0-|


|------------------|---------|----------------|--------------------|
|------------------|---------|----------------|--------------------|
|-------2---1------|---------|----2---1-------|--------------------|
|---------3---2----|---------|------3---2-----|-3------------------|
|-(2)-3---------2--|---------|-2--------------|---5-7----------3-2-|
|-(0)-----------0--|---------|-0----------0-0-|-------8-8-7--5-1-0-|


  Gtrs I, V
|------------------|----------------------------------------|----------------|
|------------------|----------------------------------------|----------------|
|------------------|-------------------------------21-(21)--|----------------|
|------------------|----------------------21-22-24----------|----------------|
|---------------14-|-15-17-19-20-22-23-24-------------------|----------------|
|------------------|----------------------------------------|----------------|
|
| Gtr III
|------------------|----------------------------------------|----------------|
|------------------|----------------------------------------|----------------|
|----2---1---------|----------------------------------------|----2---1-------|
|--2---3---0-------|----------------------------------------|------3---2-----|
|------------2-----|----------------------------------------|----------------|
|------------0-----|----------------------------------------|-0----------0-0-|
|
| Gtr IV
|------------------|----------------------------------------|----------------|
|------------------|----------------------------------------|----------------|
|----2---1---------|----------------------------------------|----2---1-------|
|--2---3---0-------|----------------------------------------|------3---2-----|
|------------2-----|----------------------------------------|----------------|
|------------0-----|----------------------------------------|------------0-0-|


|--------------------|---------------|---------|-----------------|
|--------------------|---------------|---------|-----1-3-5---6---|
|--------------------|---------------|---------|---2-------------|
|--------------------|---------------|---------|-----------7---7-|
|--------------------|---------------|---------|-0---------------|
|--------------------|---------------|---------|-----------------|
|
| Gtrs III, IV                                   Gtr III
|--------------------|---------------|---------|-----------------|
|--------------------|---------------|---------|-----------------|
|--------------------|----2---1------|---------|-----------------|
|-3------------------|------3---2----|---------|-2---------------|
|---5-7----------3-2-|--3---------2--|---------|-0---0-0-0-0-0-0-|
|-------8-8-7--5-1-0-|------------0--|---------|-----------------|


|---------------------|------------------------|
|-5-------------------|------------------------|
|-----7---------------|------------------------|
|---7---9-10----------|------------------15----|
|------------12-14----|-0----15-17-19----------|
|------------------16-|---17----------17----17-|
|
|---------------------|------------------------|
|----------4-----4----|------------------------|
|----------------8----|------------------------|
|-2-------------------|------------------------|
|-0---0-0-------------|-7----------------------|
|---------------------|-5-----5--5--5--5--5--5-|


|-------------------------|------------------------|
|-------------------------|------------------------|
|-------------------------|------------------10----|
|-------------------------|------10-12-14----------|
|-19-20-19-17-15-17-15-14-|-0-12----------12----12-|
|-------------------------|------------------------|
|
|-------------------------|------------------------|
|-------------------------|------------------------|
|-------------------------|------------------------|
|-------------------------|------------------------|
|--7----------------------|-7----------------------|
|--5-----5--5--5--5--5--5-|-5-----5--5--5--5--5--5-|


|-------------------------|------------------------|
|-------------------------|------------------------|
|-------------------------|------------------------|
|-14----12----------------|------------------15----|
|----12----14-15----------|-0----15-17-19----------|
|----------------17-19-16-|---17----------17----17-|
|
|-------------------------|------------------------|
|--------------4-----4----|------------------------|
|--------------------8----|------------------------|
|-------------------------|------------------------|
|--7----------------------|-7----------------------|
|--5-----5--5-------------|-5-----5--5--5--5--5--5-|


|-------------------------|-----------------|
|-------------------------|-----------------|
|-------------------------|-0-0-0-0-0-0-0-0-|
|-------------------------|-2-2-2-2-2-2-2-2-|
|-19-20-19-17-15-17-15-14-|-3-3-3-3-3-3-3-3-|
|-------------------------|-----------------|
|
|                           Gtrs III, IV
|-------------------------|-----------------|
|-------------------------|-----------------|
|-------------------------|-----0-----------|
|-------------------------|---2---3-2-0-----|
|--7----------------------|-3-----------3-2-|
|--5-----5--5--5--5--5--5-|-----------------|


|-----------------|-----------------|-----------------|-----------------|
|-----------------|-----------------|-----------------|-----------------|
|-3-3-3-3-3-3-3-3-|-2-2-2-2-2-2-2-2-|-5-5-5-5-5-5-5-5-|-----------------|
|-2-2-2-2-2-2-2-2-|-3-3-3-3-3-3-3-3-|-4-4-4-4-4-4-4-4-|-6-7-6-7-6-7-6-7-|
|-4-4-4-4-4-4-4-4-|-5-5-5-5-5-5-5-5-|-6-6-6-6-6-6-6-6-|-----------------|
|-----------------|-----------------|-----------------|-----------------|
|
|-----------------|-----------------|-----------------|-----------------|
|-----------------|-----------------|-----------------|-----------------|
|-----3-2-0-------|-----2-0---------|-----5-4-2-0-----|-----------------|
|---2-------3-2---|---3-----3-2-0---|---4---------4---|-----------------|
|-4-------------4-|-5-------------4-|-6-------------6-|-----------------|
|-----------------|-----------------|-----------------|-0-1-0-1-0-1-0-1-|


|-----------------|-----------------|--------------------|-----------|
|-----------------|-----------------|--------------------|-----------|
|-----------------|-----------------|--------------------|--2--------|
|-6-7-6-7-6-7-6-7-|-6-7-6-7-6-7-6-7-|-6-7---6------------|--2--------|
|-----------------|-----------------|-----8---7--8-------|--0--------|
|-----------------|-----------------|--------------10-12-|-----------|
|
|-----------------|-----------------|--------------------|-----------|
|-----------------|-----------------|--------------------|-----------|
|-----------------|-----------------|--------------------|-----------|
|-----------------|-----------------|-2-3----------------|-----------|
|-----------------|-----------------|-----5-7------------|--7--------|
|-0-1-0-1-0-1-0-1-|-0-1-0-1-0-1-0-1-|---------8-10--7--8-|--5--------|
|
| Gtr VII
|-----------------|-----------------|--------------------|-----------|
|-----------------|-----------------|--------------------|-----------|
|-----------------|-----------------|--------------------|-----------|
|-----------------|-----------------|--------------------|-----------|
|-----------------|-----------------|--------------------|-----------|
|-----------------|-----------------|--------------------|-14--------|


  Gtr IV
|-------------|----------------|--------------------|---------------|
|-------------|----------------|--------------------|----1----------|
|-------------|----2---1-------|-2---1--------------|------2-4------|
|-------------|------3---2-----|---3---2-2-0--------|--2-------6----|
|-------------|-2--------------|--------------3-3-2-|------------2--|
|-------------|-0----------0-0-|----------------1-0-|------------0--|
|
| Gtr VII       Gtr III
|-------------|----------------|--------------------|---------------|
|-------------|----------------|--------------------|---------------|
|-------------|----2---1-------|--------------------|----2---1------|
|-------------|------3---2-----|-3------------------|------3---2----|
|-------------|-2--------------|---5-7----------3-2-|--3---------2--|
|-(14)--------|-0----------0-0-|-------8-8-7--5-1-0-|------------0--|


  Gtr III
|-12-13-12-10-8-7-5-4-3-1-0----------|
|---------------------------3-1-0----|
|---------------------------------2--|
|---------------------------------6--|
|------------------------------------|
|------------------------------------|
|
| Gtr IV
|------------------------------------|
|------------------------------------|
|------------------------------------|
|------------------------------------|
|------------------------------------|
|------------------------------------|
|
| Gtr VII
|------------------------------------|
|------------------------------------|
|------------------------------------|
|------------------------------------|
|------------------------------------|
|------------------------------------|


|-----------------|------------------------|
|-----------------|------------------------|
|-----2---1-------|------------------------|
|-------3---2-----|---3--------------------|
|--2--------------|------5-7----------3-2--|
|--0----------0-0-|----------8-8-7--5-1-0--|
|
|-----------------|------------------------|
|-----------------|------------------------|
|-----2---1-------|---2----1---------------|
|-------3---2-----|------3---2-2-0---------|
|--2--------------|-----------------3-3-2--|
|--0----------0-0-|-------------------1-0--|
|
|-----------------|------------------------|
|-----------------|------------------------|
|-----------------|------------------------|
|-----------------|------------------------|
|-12--------------|-(12)-------------------|
|-----------------|------------------------|


  Gtr I
|---------------7-|-7-7--5-7-5-4-12-----|
|-----------------|---------------------|
|-----------------|---------------------|
|-----------------|---------------------|
|-----------------|---------------------|
|-----------------|---------------------|
|
| Gtr III
|-----------------|---------------------|
|-----------------|---------------------|
|----2---1--------|---------------------|
|------3---2------|---------------------|
|--3---------2----|---------------------|
|------------0----|---------------------|
|
| Gtr IV
|-----------------|---------------------|
|----1------------|---------------------|
|------2-4--------|---------------------|
|--2-------6------|---------------------|
|------------2----|---------------------|
|------------0----|---------------------|


|----------------|----------------------|
|----------------|----------------------|
|----------------|----------------------|
|----------------|----------------------|
|----------------|----------------------|
|----------------|----------------------|
|
|----------------|----------------------|
|----------------|----------------------|
|----2---1-------|----------------------|
|------3---2-----|-3--------------------|
|-2--------------|---5-7----------3-2---|
|-0----------0-0-|-------8-8-7--5-1-0---|
|
|----------------|----------------------|
|----------------|----------------------|
|----2---1-------|-2---1----------------|
|------3---2-----|---3---2-2-0----------|
|-2--------------|--------------3-3-2---|
|-0----------0-0-|----------------1-0---|


  Gtr III
|---------------|-12--------|----------------|--------------------|
|---------------|-----------|----------------|--------------------|
|----2---1------|-----------|----2---1-------|--------------------|
|------3---2----|-----------|------3---2-----|-3------------------|
|--3---------2--|-----------|-2--------------|---5-7----------3-2-|
|------------0--|-----------|-0----------0-0-|-------8-8-7--5-1-0-|
|
| Gtr IV
|---------------|-----------|----------------|--------------------|
|----1----------|-----------|----------------|--------------------|
|------2-4------|-----------|----2---1-------|-2---1--------------|
|--2-------6----|-----------|------3---2-----|---3---2-2-0--------|
|------------2--|-----------|-2--------------|--------------3-3-2-|
|------------0--|-----------|-0----------0-0-|----------------1-0-|


|---------------|---------|------------------------|-------------------------|
|---------------|---------|------------------------|-------------------------|
|----2---1------|---------|------------------------|-------------------------|
|------3---2----|---------|-2----------------------|--2-----------2-----2----|
|--3---------2--|---------|-0-----0--0--0--0--0--0-|--0-----0--0-------------|
|------------0--|---------|------------------------|-------------------------|
|
|                           Gtrs I, V
|---------------|---------|------------------------|-------------------------|
|----1----------|---------|------------------------|-------------------------|
|------2-4------|---------|------------------10----|-------------------------|
|--2-------6----|---------|------10-12-14----------|-14----12----------------|
|------------2--|---------|-0-12----------12----12-|----12----14-15----------|
|------------0--|---------|------------------------|----------------17-19-16-|


  Gtrs I, V
|------------------------|-------------------------|
|------------------------|-------------------------|
|------------------------|-------------------------|
|------------------15----|-------------------------|
|-0----15-17-19----------|-19-20-19-17-15-17-15-14-|
|---17----------17----17-|-------------------------|
|
| Gtr III
|------------------------|-------------------------|
|------------------------|-------------------------|
|------------------------|-------------------------|
|-2----------------------|--2----------------------|
|-0-----0--0--0--0--0--0-|--0-----0--0--0--0--0--0-|
|------------------------|-------------------------|


|------------------------|-------------------------|
|------------------------|-------------------------|
|------------------10----|-------------------------|
|------10-12-14----------|-14----12----------------|
|-0-12----------12----12-|----12----14-15----------|
|------------------------|----------------17-19-16-|
|
|------------------------|-------------------------|
|------------------------|-------------------------|
|------------------------|-------------------------|
|-2----------------------|--2----------------------|
|-0-----0--0--0--0--0--0-|--0-----0--0--0--0--0--0-|
|------------------------|-------------------------|


|------------------------|-------------------------|
|------------------------|-------------------------|
|------------------------|-------------------------|
|------------------15----|-------------------------|
|-0----15-17-19----------|-19-20-19-17-15-17-15-14-|
|---17----------17----17-|-------------------------|
|
|------------------------|-------------------------|
|------------------------|-------------------------|
|------------------------|-------------------------|
|-2-----------1----------|--1----------------------|
|-0-----0--0-------------|-------------------------|
|------------------------|-------------------------|


|-----------------|-----------------|
|-----------------|-----------------|
|-0-0-0-0-0-0-0-0-|-3-3-3-3-3-3-3-3-|
|-2-2-2-2-2-2-2-2-|-2-2-2-2-2-2-2-2-|
|-3-3-3-3-3-3-3-3-|-4-4-4-4-4-4-4-4-|
|-----------------|-----------------|
|
| Gtrs III, IV
|-----------------|-----------------|
|-----------------|-----------------|
|-----0-----------|-----3-2-0-------|
|---2---3-2-0-----|---2-------3-2---|
|-3-----------3-2-|-4-------------4-|
|-----------------|-----------------|


|-----------------|-----------------|-----------------|-----------------|
|-----------------|-----------------|-----------------|-----------------|
|-2-2-2-2-2-2-2-2-|-5-5-5-5-5-5-5-5-|-----------------|-----------------|
|-3-3-3-3-3-3-3-3-|-4-4-4-4-4-4-4-4-|-6-7-6-7-6-7-6-7-|-6-7-6-7-6-7-6-7-|
|-5-5-5-5-5-5-5-5-|-6-6-6-6-6-6-6-6-|-----------------|-----------------|
|-----------------|-----------------|-----------------|-----------------|
|
|-----------------|-----------------|-----------------|-----------------|
|-----------------|-----------------|-----------------|-----------------|
|-----2-0---------|-----5-4-2-0-----|-----------------|-----------------|
|---3-----3-2-0---|---4---------4---|-----------------|-----------------|
|-5-------------4-|-6-------------6-|-----------------|-----------------|
|-----------------|-----------------|-0-1-0-1-0-1-0-1-|-0-1-0-1-0-1-0-1-|


|-----------------|--------------------|----------|-------------|
|-----------------|--------------------|----------|-------------|
|-----------------|--------------------|-2--------|-------------|
|-6-7-6-7-6-7-6-7-|-6-7---6------------|-2--------|-------------|
|-----------------|-----8---7--8-------|-0--------|-------------|
|-----------------|--------------10-12-|----------|-------------|
|
| Gtr III
|-----------------|--------------------|----------|-------------|
|-----------------|--------------------|----------|-------------|
|-----------------|--------------------|----------|-------------|
|-----------------|-2-3----------------|----------|-------------|
|-----------------|-----5-7------------|-7--------|-------------|
|-0-1-0-1-0-1-0-1-|---------8-10--7--8-|-5--------|-------------|
|
| Gtr IV
|-----------------|--------------------|----------|-------------|
|-----------------|--------------------|----------|-------------|
|-----------------|--------------------|----------|-------------|
|-----------------|-2-3----------------|-7--------|-7--7--7--7--|
|-----------------|-----5-7------------|-7--------|-7--7--7--7--|
|-0-1-0-1-0-1-0-1-|---------8-10--7--8-|-5--------|-5--5--5--5--|


  Gtr IV
|----------|-----------|------------|-------------|
|----------|-----------|------------|-------------|
|----------|-----------|------------|-------------|
|-7--------|-7--7------|---7--7--7--|-7--7--7--7--|
|-7--------|-7--7------|---7--7--7--|-7--7--7--7--|
|-5--------|-5--5------|---5--5--5--|-5--5--5--5--|


  Gtr III
|----------|---------|-5-8-7-5-4-7-5-4-7-10-8-7-5-8-7-5--|
|----------|---------|-----------------------------------|
|----------|---------|-----------------------------------|
|----------|---------|-----------------------------------|
|----------|---------|-----------------------------------|
|----------|---------|-----------------------------------|
|
| Gtr IV
|----------|---------|-----------------------------------|
|----------|---------|-----------------------------------|
|----------|---------|-----------------------------------|
|-7--------|---------|-----------------------------------|
|-7--------|---------|-----------------2--------0--------|
|-5--------|---------|-5-------4-------------------------|


|-8-12-10-8-7-10-8-7-5-8-7-5-4-7-5-4-|-5-8-7-5-4-7-5-4-7-10-8-7-5-8-7-5-|
|------------------------------------|----------------------------------|
|------------------------------------|----------------------------------|
|------------------------------------|----------------------------------|
|------------------------------------|----------------------------------|
|------------------------------------|----------------------------------|
|
|------------------------------------|----------------------------------|
|------------------------------------|----------------------------------|
|------------------------------------|----------------------------------|
|------------------------------------|----------------------------------|
|-3---------2--------0---------------|-----------------2--------0-------|
|----------------------------4-------|-5-------4------------------------|


|-8-12-10-8-7-10-8-7-5-8-7-5-4-7-5-4-|
|------------------------------------|
|------------------------------------|
|------------------------------------|
|------------------------------------|
|------------------------------------|
|
|------------------------------------|
|------------------------------------|
|------------------------------------|
|------------------------------------|
|-3---------2--------0---------------|
|----------------------------4-------|


|-5---24-(24)----|-(24)---24----19-17-16-14-12-10-8-7-|
|----------------|-----------21-----------------------|
|----------------|------------------------------------|
|----------------|------------------------------------|
|----------------|------------------------------------|
|----------------|------------------------------------|
|
|----------------|------------------------------------|
|----------------|------------------------------------|
|----------------|------------------------------------|
|----------------|------------------------------------|
|----------------|------------------------------------|
|-5--------------|------------------------------------|


|-5-4---------------------10-|-(10)-----------10-8---7-|
|-----6-5-3-1-0--------------|-------------------------|
|---------------2-1----------|-------------------------|
|----------------------------|-------------------------|
|----------------------------|-------------------------|
|----------------------------|-------------------------|
|
|----------------------------|-------------------------|
|----------------------------|-------------------------|
|---------2-------1----------|-------------------------|
|-------------3-----2--------|---3---------------------|
|-2--------------------------|------5-7--------3---2---|
|-0-------------------0-0----|----------8-7-5--1---0---|


|-12--13------------------13-12-------12-12-------|
|-----17---15-17-15-13----17-15-13-12-------17-18-|
|-------------21----16-14----------14-------21----|
|-------------------------------------------------|
|-------------------------------------------------|
|-------------------------------------------------|
|
|-------------------------------------------------|
|-------------------------------------------------|
|--------------2-----------1----------------------|
|--------------------3-----------2----------------|
|-(2)----3-----------------------------2----------|
|-(0)----------------------------------0----------|


|------------------------------------------------|
|-17-15-17-15----------12-10--9------------------|
|----17----17-16-14-14-------12-10-10-9--7-------|
|-------------------17-------------14---10--7--9-|
|------------------------------------------11-12-|
|------------------------------------------------|
|
|------------------------------------------------|
|------------------------------------------------|
|------------------------------------------------|
|------------------------------------------------|
|------------------------------------------------|
|------------------------------------------------|


|-------------------------|-------------------|-----19-(19)-17------16------|
|-------------------------|-------------------|------------------17---------|
|-------------------------|-------------------|-----------------------------|
|-7-6---------------------|-------------------|-----------------------------|
|-----8-7-5-3-2-0---------|-------------------|-----------------------------|
|-----------------4---0---|-(0)---------------|-----------------------------|
|
|-------------------------|-------------------|-----------------------------|
|-------------------------|-------------------|-----------------------------|
|---------2-------1-------|-------------------|----------2-----------1------|
|-------------3-----2-----|--3----------------|----------------3-------2----|
|-2-----------------------|-----5-7-------3-2-|-(2)--3-------------------2--|
|-0-------------------0-0-|---------8-7-5-1-0-|-(0)----------------------0--|


|-------------------------------16-19-------|
|------15-17-15--17-15-17-15-17-------21----|
|--16------------------------------------21-|
|-------------------------------------------|
|-------------------------------------------|
|-------------------------------------------|
|
|-------------------------------------------|
|-------------------------------------------|
|-------------------------------------------|
|-------------------------------------------|
|-------------------------------------------|
|-------------------------------------------|


|--------16------------15-19----------15-------|
|----17-----17-15---17-------20----17----17-17-|
|-19-------------------------21-19-------19----|
|----------------------------------------------|
|----------------------------------------------|
|----------------------------------------------|
|
|----------------------------------------------|
|----------------------------------------------|
|------------2----------1----------------------|
|-----------------3-----------2----------------|
|--2-------------------------------------------|
|--0--------------------------------0-----0----|


|-16-20-------------16-------16-19-(19)-19-19-19-|
|-------21-------17-17-15-17---------------------|
|-------21-21-19---------------------------------|
|------------------------------------------------|
|------------------------------------------------|
|------------------------------------------------|
|
|------------------------------------------------|
|------------------------------------------------|
|------------------------------------------------|
|--3---------------------------------------------|
|--------5-----7---------------------3------2----|
|--------------------8-----7-----5---1------0----|


|-19--17-20-19-17-16-19-17-16----------16----------|
|-----------------------------18-17-18----18-17-15-|
|--------------------------------------------------|
|--------------------------------------------------|
|--------------------------------------------------|
|--------------------------------------------------|
|
|--------------------------------------------------|
|--------------------------------------------------|
|---------------2-----------1----------------------|
|---------------------3-----------2----------------|
|-(2)-----3-----------------------------2----------|
|-(0)-----------------------------------0----------|


|-13-12-10-8-12-10-8-7-10-8-7-8-7-5-4-7-|
|---------------------------------------|
|---------------------------------------|
|---------------------------------------|
|---------------------------------------|
|---------------------------------------|
|
|---------------------------------------|
|---------------------------------------|
|---------------------------------------|
|---------------------------------------|
|---------------------------------------|
|---------------------------------------|


|--------------10---|-(10)-------------10-|
|-9-----------------|---------------------|
|-------------------|---------------------|
|-------------------|---------------------|
|-------------------|---------------------|
|-------------------|---------------------|
|
|-------------------|---------------------|
|-------------------|---------------------|
|----2---1----------|---------------------|
|------3---2--------|---3-----------------|
|-2-----------------|------5-7-------3--2-|
|-0----------0----0-|----------8-7-5-1--0-|


|-10--10---8-7-5---13---------------------|-8-7-5-4-3-1-0-------5-4-3-1-0---|
|---------------------15-13-12-10-9-8-6-5-|---------------3-1-0-----------3-|
|-----------------------------------------|---------------------------------|
|-----------------------------------------|---------------------------------|
|-----------------------------------------|---------------------------------|
|-----------------------------------------|---------------------------------|
|
|-----------------------------------------|---------------------------------|
|-----------------------------------------|---------------------------------|
|------------2---------1------------------|---------------------------------|
|----------------3-----------2------------|---------------------------------|
|-(2)----3------------------------2-------|---------------------------------|
|-(0)-----------------------------0-------|---------------------------------|


|-1-0-----------------|-0-1-0-1-4-5-4-5-7-8-7-8-12-13-12-13--|
|-----3-1-0---0-------|--------------------------------------|
|---------------------|--------------------------------------|
|---------------------|--------------------------------------|
|---------------------|--------------------------------------|
|---------------------|--------------------------------------|
|
|---------------------|--------------------------------------|
|---------------------|--------------------------------------|
|---------2---1-------|--------------------------------------|
|-----------3---2-----|-3------------------------------------|
|-2-------------------|-----5---7----------------3-----2-----|
|-0---------------0-0-|-------------8---7---5----1-----0-----|


|-16--16-16-16-17-17-17-17-19-19-19-19-20--|-(20)----20-19-17-20-19-17-16-|
|------------------------------------------|------------------------------|
|------------------------------------------|------------------------------|
|------------------------------------------|------------------------------|
|------------------------------------------|------------------------------|
|------------------------------------------|------------------------------|
|
|------------------------------------------|------------------------------|
|------------------------------------------|------------------------------|
|---------------2-----------1--------------|------------------------------|
|---------------------3-----------2--------|------------------------------|
|-(2)-----3-----------------------------2--|------------------------------|
|-(0)-----------------------------------0--|------------------------------|


|-19-17-16----------20-19-17-16----------19-17-16-|
|----------18-17-15-------------18-17-15----------|
|-------------------------------------------------|
|-------------------------------------------------|
|-------------------------------------------------|
|-------------------------------------------------|
|
|-------------------------------------------------|
|-------------------------------------------------|
|--------------2-----------1----------------------|
|--------------------3-----------2----------------|
|--2----------------------------------------------|
|--0-----------------------------------0-----0----|


|-17-16-------20-19-17-16-17-16-------24----|
|-------18-17-------------------18-17-------|
|-------------------------------------------|
|-------------------------------------------|
|-------------------------------------------|
|-------------------------------------------|
|
|-------------------------------------------|
|-------------------------------------------|
|-------------------------------------------|
|--3----------------------------------------|
|--------5-----7-----------------------3-2--|
|--------------------8-----7-----5-----1-0--|


                                     Q=110
                                     Gtr I
|-(24)-----------24--|-(24)--------|--------1-1---|
|--------------------|-------------|------3---3-3-|
|--------------------|-------------|------2---2---|
|--------------------|-------------|------0---0---|
|--------------------|-------------|----0---------|
|--------------------|-------------|--------------|
|
|                                    Gtr V
|--------------------|-------------|--------1-1---|
|--------------------|-------------|--------3-3-3-|
|--------2---1-------|-------------|------2---2---|
|----------3---2-----|-------------|------0---0---|
|--(2)-3----------2--|-------------|----0---------|
|--(0)------------0--|-------------|--------------|


|-----------------------3-------3-|-------3--------------1-|
|-5-6-----6-5-3-------3-------3---|-----2---------2----3---|
|---9-7---------2-0-4-------4-----|---4---------2------2---|
|-------7-----------------3-------|-2---------2-----0--0---|
|---------------------------------|---------0--------------|
|---------------------------------|------------------------|
|
|-----------------------3-------3-|-------3--------------1-|
|-5-6-5---6-5-3-------3-------3---|-----2---------2------3-|
|-----7---------2-0-4-------4-----|---4---------2------2---|
|-------7-----------------3-------|-2---------2-----0--0---|
|---------------------------------|---------0--------------|
|---------------------------------|------------------------|


|-0-1-----1-0-----------3-------3-|-------3--------------1-|
|---5-3-------3-------3-------3---|-----2---------2----3---|
|-------2-------2-0-4-------4-----|---4---------2------2---|
|-------------------------3-------|-2---------2-----0--0---|
|---------------------------------|---------0--------------|
|---------------------------------|------------------------|
|
|-0-1-0---1-0-----------3-------3-|-------3--------------1-|
|-----3-------3-------3-------3---|-----2---------2------3-|
|-------2-------2-0-4-------4-----|---4---------2------2---|
|-------------------------3-------|-2---------2-----0--0---|
|---------------------------------|---------0--------------|
|---------------------------------|------------------------|


|-0-1-----1-0-----------3-------3-|-------3--------------1-|
|---5-3-------3-------3-------3---|-----2---------2----3---|
|-------2-------2-0-4-------4-----|---4---------2------2---|
|-------------------------3-------|-2---------2-----0--0---|
|---------------------------------|---------0--------------|
|---------------------------------|------------------------|
|
|-0-1-0---1-0-----------3-------3-|-------3--------------1-|
|-----3-------3-------3-------3---|-----2---------2------3-|
|-------2-------2-0-4-------4-----|---4---------2------2---|
|-------------------------3-------|-2---------2-----0--0---|
|---------------------------------|---------0--------------|
|---------------------------------|------------------------|


                                                      Q=210
                                   2/4               4/4
                                                      Gtr III
|-0-1-----1-0-----------3-------3-|-------3---------|-------------------|
|---5-3-------3-------3-------3---|-----2---------2-|-3--3-------3----3-|
|-------2-------2-0-4-------4-----|---4---------2---|-2--2-------2----2-|
|-------------------------3-------|-2---------2-----|-0----0--0----0----|
|---------------------------------|---------0-------|-------------------|
|---------------------------------|-----------------|-------------------|
|
|                                                     Gtr IV
|-0-1-0---1-0-----------3-------3-|-------3---------|-------------------|
|-----3-------3-------3-------3---|-----2---------2-|-3--3-------3----3-|
|-------2-------2-0-4-------4-----|---4---------2---|-2--2-------2----2-|
|-------------------------3-------|-2---------2-----|-0----0--0----0----|
|---------------------------------|---------0-------|-------------------|
|---------------------------------|-----------------|-------------------|


|-----------------------|-----------|------------|
|-(3)----3----------3---|-----------|------------|
|-(2)----2----------2---|-4----2----|-0----------|
|-----0----0--0--0----0-|-----------|------2-----|
|-----------------------|-----------|------0--4--|
|-----------------------|-----------|------------|
|
|-----------------------|-----------|------------|
|-(3)----3----------3---|-----------|------------|
|-(2)----2----------2---|-4----2----|-0----------|
|-----0----0--0--0----0-|-----------|------2-----|
|-----------------------|-----------|------0--4--|
|-----------------------|-----------|------------|


|---------------------|--------------------------|-----------|
|---------------------|--------------------------|-----------|
|-7--7-------7-(7)----|---------7----------------|-4----2----|
|-7--7-------7-(7)----|---------7----------------|-----------|
|-5----5--5--------5--|--5---5----5--5--5--5--5--|-----------|
|---------------------|--------------------------|-----------|
|
|---------------------|--------------------------|-----------|
|---------------------|--------------------------|-0---------|
|-7--7-------7-----7--|-(7)-----7----------7-----|-4----2----|
|-7--7-------7-----7--|-(7)-----7----------7-----|-----------|
|-5----5--5-----5-----|------5----5--5--5-----5--|-----------|
|---------------------|--------------------------|-----------|


|------------|--------------------------------------------|
|------------|--3-----------3--------------3-(3)----------|
|-0----------|--2-----------2--------------2-(2)----------|
|------2-----|--0-----------------0----0-------------0----|
|------0-----|--------------------------------------------|
|------------|--------------------------------------------|
|
|------------|-17-19-17-15-13----22--(22)--------19-------|
|------------|----------------15-------------22--22-20-18-|
|-0----------|-----------------------------------------19-|
|------2-----|--------------------------------------------|
|---------4--|--------------------------------------------|
|------------|--------------------------------------------|


|------------------------------------------|
|------------3-----------------------------|
|------------2-----------------------------|
|--0--0------------0---0--0-----0-----0----|
|------------------------------------------|
|------------------------------------------|
|
|-17----19-(19)-17----15----13-17-15-13-13-|
|------------------------------------17----|
|------------------------------------------|
|------------------------------------------|
|------------------------------------------|
|------------------------------------------|


|-------------------------------------------|---------------------------------|
|-------------------------------------------|---------------------------------|
|--4----------------------2-----------------|-0-------------------------------|
|-------------------------------------------|-----------------2---------------|
|-------------------------------------------|-----------------0---------------|
|-------------------------------------------|---------------------------------|
|
|-15-13-12-10-13-12-10-8-12-10-8-7-10-8-7-5-|-8-7-5-3-7-5-3-1-5-3-1-0-3-1-0-1-|
|-------------------------------------------|---------------------------------|
|-------------------------------------------|---------------------------------|
|-------------------------------------------|---------------------------------|
|-------------------------------------------|---------------------------------|
|-------------------------------------------|---------------------------------|


|---------------------|------------------------|-----------|
|-3--3-------3-(3)----|-------3----------------|-----------|
|-2--2-------2-(2)----|-------2----------------|-4----2----|
|-0----0--0--------0--|-0--0----0--0--0--0--0--|-----------|
|---------------------|------------------------|-----------|
|---------------------|------------------------|-----------|
|
|---------------------|------------------------|-----------|
|-3-------------------|------------------------|-----------|
|---------------------|------------------------|-----------|
|---------------------|------------------------|-----------|
|---------------------|------------------------|-----------|
|---------------------|------------------------|-----------|


|-------------|--------------------------------------------------|
|-------------|--3-----------3-----------------3----(3)----------|
|-0-----------|--2-----------2-----------------2----(2)----------|
|------2------|--0-----------------0-----0------------------0----|
|------0------|--------------------------------------------------|
|-------------|--------------------------------------------------|
|
|-----------9-|-10-12-13-12-13-17-19-17----------15-13-----------|
|-------------|----------------20----20-18-17-17-18-----24-22-20-|
|-------------|----------------------------19-----------24----22-|
|-------------|--------------------------------------------------|
|-------------|--------------------------------------------------|
|-------------|--------------------------------------------------|


|-------------------------------------------------|
|--------------3----------------------------------|
|--------------2----------------------------------|
|--0-----0-----------0-----0-----0-----0-----0----|
|-------------------------------------------------|
|-------------------------------------------------|
|
|-19-------------------------------------------15-|
|----20-22----24----22----24-22-20-18----18-17-18-|
|-------24-22----24-24-22----24----21-19-21-------|
|-------------------------------------------------|
|-------------------------------------------------|
|-------------------------------------------------|


|----------------------------------------|
|----------------------------------------|
|--4-----------------------2-------------|
|----------------------------------------|
|----------------------------------------|
|----------------------------------------|
|
|----15-13-12-12-13-12-12-10-9--7------0-|
|-17-18----15-------15---------10-8-6----|
|----------------------------------------|
|----------------------------------------|
|----------------------------------------|
|----------------------------------------|


|--------------------------------------------|
|--------------------------------------------|
|-0------------------------------------------|
|---------------------2----------------------|
|---------------------0----------------------|
|--------------------------------------------|
|
|-0-22--21-----------------------------------|
|----------23-22--20-18-17-15-14-------------|
|--------------------------------15-14-12----|
|--------------------------------------15-14-|
|--------------------------------------------|
|--------------------------------------------|


|----------------------|---------------------------|
|--3--3-------3-(3)----|----------3----------------|
|--2--2-------2-(2)----|----------2----------------|
|--0----0--0--------0--|---0---0----0--0--0--0--0--|
|----------------------|---------------------------|
|----------------------|---------------------------|
|
|----------------------|---------------------------|
|----------------------|---------------------------|
|----------------------|---------------------------|
|-12-------------------|-(12)----------------------|
|----------------------|---------------------------|
|----------------------|---------------------------|


|-----------|-------------|--------------------------------------------------|
|-----------|-------------|-3-----------3-----------------3----(3)-----------|
|-4----2----|-0-----------|-2-----------2-----------------2----(2)-----------|
|-----------|------2------|-0-----------------0-----0------------------0-----|
|-----------|------0------|--------------------------------------------------|
|-----------|-------------|--------------------------------------------------|
|
|-----------|-------------|--------------------------------------------------|
|-----------|-------------|--------------------------------------------------|
|-----------|-------------|--------------------------------------------------|
|-----------|-------------|--------------------------------------------------|
|-----------|-------------|-8------------------------------------------------|
|-----------|---------10--|---10-12-13-15-12-13-15-17-13-15-17-19--15-17-19--|


|---------------------------------------------|
|--------------3------------------------------|
|--------------2------------------------------|
|--0-----0-----------0-----0-----0----0---0---|
|---------------------------------------------|
|---------------------------------------------|
|
|-------------------------------------1-------|
|---------------------------------------3-5-6-|
|---------------------------------------------|
|---------------------------------------------|
|---------------------------------------------|
|-20-17-19-20-22-19-20-22-24-21-22-24---------|


|---------------------------------------------|
|---------------------------------------------|
|-4--------------------2----------------------|
|---------------------------------------------|
|---------------------------------------------|
|---------------------------------------------|
|
|---------------------------------------------|
|-8------8-10----8-10-12----10-12-13----12-13-|
|---9-10------10---------12----------14-------|
|---------------------------------------------|
|---------------------------------------------|
|---------------------------------------------|


|-------------|------------------------|----------------------------|
|-------------|---3---3-------3-(3)----|----------3-----------------|
|--0----------|---2---2-------2-(2)----|----------2-----------------|
|--------2----|---0-----0--0--------0--|---0---0----0--0--0--0--0---|
|--------0----|------------------------|----------------------------|
|-------------|------------------------|----------------------------|
|
|-------------|------------------------|----------------------------|
|-15----17----|-(17)-------------------|-(17)-----------------------|
|-------------|------------------------|----------------------------|
|-------------|------------------------|----------------------------|
|-------------|------------------------|----------------------------|
|-------------|------------------------|----------------------------|


|--7-----5----|--3----------|--7-----5----|--3----------|
|-------------|--------5----|-------------|--------5----|
|-------------|--------2----|-------------|-------------|
|-------------|-------------|-------------|-------------|
|-------------|-------------|-------------|-------------|
|-------------|-------------|-------------|-------------|
|
|-------------|-------------|-------------|-------------|
|-------------|-------------|-------------|-------------|
|-------------|-------------|-------------|-------------|
|-17----15----|-14----------|-17----15----|-14----------|
|-------------|-------16----|-------------|-------16----|
|-------------|-------------|-------------|-------------|


|--7-----8----|-10----12----|-----------------|-----------------|
|-------------|-------------|-----------------|-----------------|
|-------------|-------------|-----2---1-------|-----------------|
|-------------|-------------|-------3---2-----|-3---------------|
|-------------|-------------|--2--------------|---5-7-------3-2-|
|-------------|-------------|--0----------0-0-|-------8-7-5-1-0-|
|
|-------------|-------------|-----------------|-----------------|
|-------------|-------------|-----------------|-----------------|
|-------------|-------------|-----2---1-------|-----------------|
|-17----19----|-21----23----|-------3---2-----|-3---------------|
|-------------|-------------|--2--------------|---5-7-------3-2-|
|-------------|-------------|--0----------0-0-|-------8-7-5-1-0-|
|
| Gtr VII
|-------------|-------------|-12--------------|-----------------|
|-------------|-------------|-----------------|-----------------|
|-------------|-------------|-----------------|-----------------|
|-------------|-------------|-----------------|-----------------|
|-------------|-------------|-----------------|-----------------|
|-------------|-------------|-----------------|-----------------|


|---------------|-------------|----------------|--------------------|
|---------------|-------------|----------------|--------------------|
|----2---1------|---0--(0)----|----2---1-------|--------------------|
|--2---3---2----|-------------|------3---2-----|-3------------------|
|------------2--|-------------|-2--------------|---5-7-----3-0-3-2--|
|------------0--|-------------|-0----------0-0-|-------8-7-7---1-0--|
|
|---------------|-------------|----------------|--------------------|
|---------------|-------------|----------------|--------------------|
|----2---1------|-------------|----2---1-------|--------------------|
|--2---3---2----|-------------|------3---2-----|-3------------------|
|------------2--|-------------|-2--------------|---5-7-----3-0-3-2--|
|------------0--|-------------|-0----------0-0-|-------8-7-7---1-0--|


  Gtrs III, IV
|---------------|---------|----------------|-------------------|
|---------------|---------|----------------|-------------------|
|----2---1------|---------|----2---1-------|-------------------|
|------3---2----|---------|------3---2-----|-3--2-0------------|
|--3---------2--|---------|-2--------------|--------3-2--0-3-2-|
|------------0--|---------|-0----------0-0-|---------------1-0-|


|---------------|---------|----------------|--------------------|
|---------------|---------|----------------|--------------------|
|----2---1------|---------|----2---1-------|--------------------|
|------3---2----|---------|------3---2---0-|-3------------------|
|--3---------2--|---------|-2--------------|---5-7----------3-2-|
|------------0--|---------|-0----------0---|-------8-8-7--5-1-0-|


  Gtrs I, V
|---------------|---------|-----------------|---------------------|
|---------------|---------|-----1-3-5---6---|-5-------------------|
|---------------|---------|---2-------------|-----7---------------|
|---------------|---------|-----------7---7-|---7---9-10----------|
|---------------|---------|-0---------------|------------12-14----|
|---------------|---------|-----------------|------------------16-|
|
| Gtrs III, IV                Gtr III
|---------------|---------|-----------------|---------------------|
|---------------|---------|-----------------|----------4-----4----|
|----2---1------|---------|-----------------|----------------8----|
|------3---2----|---------|-2---------------|-2-------------------|
|--3---------2--|---------|-0---0-0-0-0-0-0-|-0---0-0-------------|
|------------0--|---------|-----------------|---------------------|


|------------------------|-------------------------|
|------------------------|-------------------------|
|------------------------|-------------------------|
|------------------15----|-------------------------|
|-0----15-17-19----------|-19-20-19-17-15-17-15-14-|
|---17----------17----17-|-------------------------|
|
|------------------------|-------------------------|
|------------------------|-------------------------|
|------------------------|-------------------------|
|------------------------|-------------------------|
|-7----------------------|--7----------------------|
|-5-----5--5--5--5--5--5-|--5-----5--5--5--5--5--5-|


|------------------------|-------------------------|
|------------------------|-------------------------|
|------------------10----|-------------------------|
|------10-12-14----------|-14----12----------------|
|-0-12----------12----12-|----12----14-15----------|
|------------------------|----------------17-19-16-|
|
|------------------------|-------------------------|
|------------------------|--------------4-----4----|
|------------------------|--------------------8----|
|------------------------|-------------------------|
|-7----------------------|--7----------------------|
|-5-----5--5--5--5--5--5-|--5-----5--5-------------|


|------------------------|-------------------------|
|------------------------|-------------------------|
|------------------------|-------------------------|
|------------------15----|-------------------------|
|-0----15-17-19----------|-19-20-19-17-15-17-15-14-|
|---17----------17----17-|-------------------------|
|
|------------------------|-------------------------|
|------------------------|-------------------------|
|------------------------|-------------------------|
|------------------------|-------------------------|
|-7----------------------|--7----------------------|
|-5-----5--5--5--5--5--5-|--5-----5--5--5--5--5--5-|


|-----------------|-----------------|
|-----------------|-----------------|
|-0-0-0-0-0-0-0-0-|-3-3-3-3-3-3-3-3-|
|-2-2-2-2-2-2-2-2-|-2-2-2-2-2-2-2-2-|
|-3-3-3-3-3-3-3-3-|-4-4-4-4-4-4-4-4-|
|-----------------|-----------------|
|
| Gtrs III, IV
|-----------------|-----------------|
|-----------------|-----------------|
|-----0-----------|-----3-2-0-------|
|---2---3-2-0-----|---2-------3-2---|
|-3-----------3-2-|-4-------------4-|
|-----------------|-----------------|


|-----------------|-----------------|-----------------|-----------------|
|-----------------|-----------------|-----------------|-----------------|
|-2-2-2-2-2-2-2-2-|-5-5-5-5-5-5-5-5-|-----------------|-----------------|
|-3-3-3-3-3-3-3-3-|-4-4-4-4-4-4-4-4-|-6-7-6-7-6-7-6-7-|-6-7-6-7-6-7-6-7-|
|-5-5-5-5-5-5-5-5-|-6-6-6-6-6-6-6-6-|-----------------|-----------------|
|-----------------|-----------------|-----------------|-----------------|
|
|-----------------|-----------------|-----------------|-----------------|
|-----------------|-----------------|-----------------|-----------------|
|-----2-0---------|-----5-4-2-0-----|-----------------|-----------------|
|---3-----3-2-0---|---4---------4---|-----------------|-----------------|
|-5-------------4-|-6-------------6-|-----------------|-----------------|
|-----------------|-----------------|-0-1-0-1-0-1-0-1-|-0-1-0-1-0-1-0-1-|


|-----------------|--------------------|------|
|-----------------|--------------------|------|
|-----------------|--------------------|------|
|-6-7-6-7-6-7-6-7-|-6-7---6------------|------|
|-----------------|-----8---7--8-------|------|
|-----------------|--------------10-12-|------|
|
|-----------------|--------------------|------|
|-----------------|--------------------|------|
|-----------------|--------------------|------|
|-----------------|-2-3----------------|-7----|
|-----------------|-----5-7------------|-7----|
|-0-1-0-1-0-1-0-1-|---------8-10--7--8-|-5----|


  Gtr III
|---------------------------------|-----------------------|
|-----------3-5-3-1-0-------------|-----5-3-1-0-----------|
|---------5-----------2-1-----1-2-|-4-5-7-------2---------|
|-----6-7-9---------------3-3-----|-------------6-3-2--3--|
|-7-8---------------------7-------|-----------------------|
|---------------------------------|-----------------------|
|
| Gtr IV
|---------------------------------|-----------------------|
|---------------------------------|-----------------------|
|---------------------------------|-----------------------|
|-2-----3-------------------------|-----------------------|
|-2-------------------------------|-----------------------|
|-0-------------------------------|-----------------------|


|---------------------------------|-----------------------|
|---------1-3-5-3-1-0-------------|-----5-3-1-0-----------|
|-----1-2-4-----------2-1-----1-2-|-4-5-7-------2---------|
|-2-3---------------------3-3-----|-------------6-3-2--3--|
|-------------------------7-------|-----------------------|
|---------------------------------|-----------------------|


|---------------------------------|-----------------------|
|---------1-3-5-3-1-0-------------|-----5-3-1-0-----------|
|-----1-2-4-----------2-1-----1-2-|-4-5-7-------2---------|
|-2-3---------------------3-3-----|-------------6-3-2--3--|
|-------------------------7-------|-----------------------|
|---------------------------------|-----------------------|


                                                            Q=90
|---------------------------------|-----------------------|-1--0---------|
|---------1-3-5-3-1-0-------------|-----5-3-1-0-----------|--------------|
|-----1-2-4-----------2-1-----1-2-|-4-5-7-------2---------|-------1--2---|
|-2-3---------------------3-3-----|-------------6-3-2--3--|--------------|
|-------------------------7-------|-----------------------|--------------|
|---------------------------------|-----------------------|--------------|


                Q=90
|-------------|-------------|-------------|------13-12-------------------|
|-1--0--------|-------------|-------------|---------15-13-------13-------|
|-------------|-2--1--------|-------------|------------16-14----16-14-12-|
|-------2--3--|-------------|-3--2--------|---------------18-15----18-15-|
|-------------|-------2--3--|----------7--|-3----------------19----------|
|-------------|-------------|-------4--5--|-1----------------------------|


  Q=120
|------------------------------------4-|
|----------------------------------6-8-|
|-------14-13--------------------7-9---|
|-14-------17-15-15-14-12-10--9-10-----|
|-17-15-------19-17-17-15-14-----------|
|----19-17-----------------------------|


                                 Q=120
|--7-5--8--7-10--8-12-12-------|-------------|
|-10-9-12-10-13-12-15-15-22----|-(22)--------|
|------------------------22----|-(22)--------|
|------------------------------|-------------|
|------------------------------|-------------|
|------------------------------|-------------|


  Q=190                      Q=90
|----------------|---------|---------|-----|
|----------------|---------|---------|-----|
|---4-2---1------|---------|---------|-----|
|-3-----3---2----|---------|---------|-----|
|-------------2--|---------|---------|-----|
|-------------0--|---------|---------|-----|


  Q=90
  Gtr I
|-----*|
|-----*|
|-----*|
|-----*|
|-----*|
|-----*|



***************************************************************************************
* Generated using Power Tab Editor by Brad Larsen - http://powertab.guitarnetwork.org *
***************************************************************************************

            
            
Suggest correction
Creating personal tab
Creating personal tab
You can edit any tab online and save it as your Personal.

You can edit, replace or remove any tab part or add personal notes – all changes will be seen only by you.

Personal tabs can be accessed anytime from any device, even offline.
Learn more »
Give kudos to tab author, rate the tab!
1 2 3 4 5
comments
print report bad tab
5 comments total. Showing first comments.
0 reply
Lefty_God 40 Jul 01, 2007 08:43 AM

Yngwie uses strats, which dont have 24 frets.

0 reply
Deus Mortuum 52 Jul 05, 2007 05:11 AM

since when does the fact that the original artist only has 22 frets mean that i cant use the 24 frets that most of the guitarists who will be able to play this have?

0 reply
TravuhsWree 10 Feb 21, 2009 05:43 PM

Way to make a huge generalization.... Yngwie's Strat doesn't have 24 frets.....

guest
You may want to rate the tab now too:
select rating
Wanna post a correction for this tab? Suggest correction