Oops, an error
Loading. Please wait.

Sorrow tab

version 2
version 2

Whole song

Interactive

1,066 views 1 this week
no commentswrite comment
1 2 3 4 5
3 more votes to show rating
add to favorites
×
Save as Personal and add changes to this tab that will be seen only by you. Learn more ›
×
You can save this tab as Personal to edit and correct it or add notes. All changes will be seen only by you. Learn more »
launch autoscroll
font size
0
reset
how to read this tab
guitar tuner
edit
Autoscroll
slow
fast
+/-
esc
set tempo
stop
#----------------------------------PLEASE NOTE---------------------------------#
#This file is the author's own work and represents their interpretation of the #
#song. You may only use this file for private study, scholarship, or research. #
#------------------------------------------------------------------------------#

SORROW
As recorded by Yngwie Malmsteen
(From the 1994 Album THE 7TH SIGN)


Transcribed by an unregistered user



Gtr I (Eb Ab Db Gb Bb Eb) - 'Untitled'
Gtr II (Eb Ab Db Gb Bb Eb) - 'Untitled'
Gtr III (Eb Ab Db Gb Bb Eb) - 'Untitled'

  Q=92
 4/4
  Gtr I
  W                       H          Q     E  S S
|-----------------------|---------------------3-2-|
|-----------------------|-------------------------|
|-----------------------|-------------------------|
|-----------------------|-------------------------|
|-----------------------|-------------------------|
|-----------------------|-------------------------|
|
|   Gtr II
| E  E  E  E E  E  E  E   E  E  E  E E  E  E  E
|---15----15---15----15-|---15----15---15----15---|
|------11---------11----|------13---------13------|
|-----------------------|-------------------------|
|-----------------------|-------------------------|
|-----------------------|-------------------------|
|-----------------------|-------------------------|
|
| Gtr III
| E  E  E  E E  E  E  E   E  E  E  E E  E  E  E
|---10----10---10----10-|---11----11---11----11---|
|-------8----------8----|-------8----------8------|
|-0----------0----------|-0----------0------------|
|-----------------------|-------------------------|
|-----------------------|-------------------------|
|-----------------------|-------------------------|


  W                       H..                   S S
|-3---------------------|-5---------------------6-5-|
|-----------------------|---------------------------|
|-----------------------|---------------------------|
|-----------------------|---------------------------|
|-----------------------|---------------------------|
|-----------------------|---------------------------|
|
| E  E  E  E E  E  E  E   E    E  E  E E  E  E  E
|---15----15---15----15-|-----11----11---11----11---|
|------11---------11----|--------10---------10------|
|-----------------------|---------------------------|
|-----------------------|---------------------------|
|-----------------------|---------------------------|
|-----------------------|---------------------------|
|
| E  E  E  E E  E  E  E   E    E  E  E E  E  E  E
|---10----10---10----10-|------8-----8----8-----8---|
|-------8----------8----|---------8----------8------|
|-0----------0----------|-0------------0------------|
|-----------------------|---------------------------|
|-----------------------|---------------------------|
|-----------------------|---------------------------|


  H..                   S S   W
|-6---------------------5-3-|-5-----------------|
|---------------------------|-------------------|
|---------------------------|-------------------|
|---------------------------|-------------------|
|---------------------------|-------------------|
|---------------------------|-------------------|
|
| E    E  E  E E  E  E  E     E E  E E E E  E E
|-----10----10---10----10---|---8----8---8----8-|
|--------11---------11------|-----10-------10---|
|---------------------------|-------------------|
|---------------------------|-------------------|
|---------------------------|-------------------|
|---------------------------|-------------------|
|
| E    E  E  E E  E  E  E     E E  E E E E  E E
|------6-----6----6-----6---|---5----5---5----5-|
|---------8----------8------|------7--------7---|
|-0------------0------------|-0--------0--------|
|---------------------------|-------------------|
|---------------------------|-------------------|
|---------------------------|-------------------|


  W                 E E E E +E  E E E   +E  E E E  H
|-----------------|---6---------6-----|-----5-----------||
|-----------------|-------8-(8)-----8-|-(8)-----8-------||
|-----------------|-----7---------7---|-------7----7----||
|-----------------|-------------------|-----------------||
|-----------------|-------------------|-----------------||
|-----------------|-------------------|-----------------||
|
| E E E E E E E E   W                    W
|---6---6---6---6-|-------------------|-----------------||
|-----8-------8---|-------------------|-----------------||
|-----------------|-------------------|-----------------||
|-----------------|-------------------|-----------------||
|-----------------|-------------------|-----------------||
|-----------------|-------------------|-----------------||
|
| E E E E E E E E   E E E E  E  E E E    E  E E E  H
|---3---3---3---3-|---3---------3-----|-----3-----^2----||
|-----4-------4---|-----3---------3---|-------3---^3----||
|-0-------0-------|-------3---------3-|---------2-^2----||
|-----------------|-0--------0--------|--0--------^0----||
|-----------------|-------------------|-----------^0----||
|-----------------|-------------------|-----------------||


                |-----5-----|  |---3----|
  H          E  T  T  T  T  T  E  E     E
|-----------------------------15----------|
|--------------------------15----15----16-|
|-----------------------15----------------|
|--------------------17-------------------|
|-----------------17----------------------|
|--------------15-------------------------|
|
| E  E  E  E E  E              E     E
|---15----15---15-------------------15----|
|------11---------------------11----------|
|-----------------------------------------|
|-----------------------------------------|
|-----------------------------------------|
|-----------------------------------------|
|
| E  E  E  E E  E              E     E
|---10----10---10-------------------10----|
|-------8----------------------8----------|
|-0----------0----------------------------|
|-----------------------------------------|
|-----------------------------------------|
|-----------------------------------------|


   S  S  E  S  S  E  S  E.     Q      S  S  E  E  E  S  S  S  S  S  S  S  S
|-----------------------------------|----------------------------------------|
|----15-----------------------------|---15----15-15-13-----------------------|
|-17----17-15-17-15-15-14-----12----|------12----------15-14-12-11-12-14-11--|
|-----------------------------------|----------------------------------------|
|-----------------------------------|----------------------------------------|
|-----------------------------------|----------------------------------------|
|
|  E     E  E     E  E      E  E  E   E     E  E  E  E     E     E     E
|-------15-------15--------15----15-|------15----15-------15----------15-----|
|----------13-----------------13----|---------11----------------11-----------|
|-----------------------------------|----------------------------------------|
|-----------------------------------|----------------------------------------|
|-----------------------------------|----------------------------------------|
|-----------------------------------|----------------------------------------|
|
|  E     E  E     E  E      E  E  E   E     E  E  E  E     E     E     E
|-------11-------11--------11----11-|------10----10-------10----------10-----|
|-----------8------------------8----|----------8-----------------8-----------|
|--0-----------------0--------------|-0--------------0-----------------------|
|-----------------------------------|----------------------------------------|
|-----------------------------------|----------------------------------------|
|-----------------------------------|----------------------------------------|


   S  S  S  S  S  S  E  +Q.        S S    S  S  S  S  S  S  S  S  S  S  S  S  S  S  S  S
|--------------------------------------|-------------------------------------------------|
|--------------------------------------|----------------------------------10----11-10-13-|
|-12-----------------------------------|----------------------------12-11----12----------|
|----12-13-10-12----10-(10)------------|----------10----12-10-13p12----------------------|
|----------------13---------------10-9-|-10-13p12----13----------------------------------|
|--------------------------------------|-------------------------------------------------|
|
|  E     E     E     E   E   E  E  E      E     E     E     E     E     E     E     E
|-------11----------11------11----11---|-------10----------10----------10----------10----|
|-------------10---------------10------|-------------11----------------------11----------|
|--------------------------------------|-------------------------------------------------|
|--------------------------------------|-------------------------------------------------|
|--------------------------------------|-------------------------------------------------|
|--------------------------------------|-------------------------------------------------|
|
|  E     E     E     E   E   E  E  E      E     E     E     E     E     E     E     E
|--------8-----------8-------8-----8---|--------6-----------6-----------6-----------6----|
|--------------8----------------8------|--------------8-----------------------8----------|
|--0---------------------0-------------|--0-----------------------0----------------------|
|--------------------------------------|-------------------------------------------------|
|--------------------------------------|-------------------------------------------------|
|--------------------------------------|-------------------------------------------------|


   S  S  S  S  S  S  S  S  S  S  S  S  S  S  S  S
|-------------------------------------------------|
|-15p11-13----------15p13-------------------------|
|----------14-14-15-------14-12-14-15-12-14-15-12-|
|-------------------------------------------------|
|-------------------------------------------------|
|-------------------------------------------------|
|
|  E     E     E     E     E     E     E     E
|--------8-----------8-----------8-----------8----|
|-------------10----------------------10----------|
|-------------------------------------------------|
|-------------------------------------------------|
|-------------------------------------------------|
|-------------------------------------------------|
|
|  E     E     E     E     E     E     E     E
|--------5-----------5-----------5-----------5----|
|--------------7-----------------------7----------|
|--0-----------------------0----------------------|
|-------------------------------------------------|
|-------------------------------------------------|
|-------------------------------------------------|


   S  S  S  S  H.             E E E E E E E E   E E E E E E E E    W
|---------------------------|---6-------6---6-|---5---5---5---5-|-------||
|---------------------------|-------8-----8---|-------------8---|--7----||
|-11-12-14-11-12------------|-----7-----------|-----7---7-------|-------||
|---------------------------|-0-------0-------|-0---------------|-------||
|---------------------------|-----------------|-----------------|-------||
|---------------------------|-----------------|-----------------|-------||
|
|  E     E     E  E E E E E   W                 W                  W
|--------6--------6---6---6-|-----------------|-----------------|-------||
|--------------8--------8---|-----------------|-----------------|-------||
|---------------------------|-----------------|-----------------|-------||
|---------------------------|-----------------|-----------------|-------||
|---------------------------|-----------------|-----------------|-------||
|---------------------------|-----------------|-----------------|-------||
|
|  E     E     E  E E E E E   E E E E E E E E   E E E E E E E E    W
|--------3--------3---3---3-|---3-------3-----|---3---3---3-----|-^2----||
|--------------4--------4---|-------3-------3-|---------------3-|-^3----||
|--0----------------0-------|-----3-------3---|-----2-------2---|-^2----||
|---------------------------|-0-------0-------|-0-------0-------|-^0----||
|---------------------------|-----------------|-----------------|-^0----||
|---------------------------|-----------------|-----------------|-------||


  Gtrs I, II
  Q   E  E  E  E  E  E    Q    Q    Q   Q     Q    E  E  E  E  E  E
|----------------10-13-|-11---10-----------|---------------------11-|
|-------10-12-13-------|-----------13--11--|-10---------10-11-13----|
|----12----------------|-------------------|------10-12-------------|
|----------------------|-------------------|------------------------|
|----------------------|-------------------|------------------------|
|----------------------|-------------------|------------------------|
|
| Gtr III
| Q   E  E  Q     Q       E E  E E  H         E E  E  E  Q     Q
|--------3--3----------|-------------------|----------6--5----------|
|-----------------3----|---------4---------|-------6-----------6----|
|-----0----------------|-------5-----------|----5-------------------|
|----------------------|----5--------------|------------------------|
|-2--------------------|--3---------1------|--0---------------------|
|----------------------|-------------------|------------------------|


   Q    Q    Q   E  E    H.              E  E
|-10------------------|-------------------------|
|------13---11--10----|-10--------------11-13---|
|------------------12-|-11----------------------|
|---------------------|-------------------------|
|---------------------|-------------------------|
|---------------------|-------------------------|
|
|  E E  E E  Q   E  E    E  E E E +E  E  Q
|---------------------|---------2-(2)-----------|
|---------3-----------|---------------3---------|
|-------3-------------|-------2----------2------|
|----3-------3--------|-----0-------------------|
|--1-------------0----|-------------------------|
|-------------------3-|--2----------------------|


  Gtr I
   Q.        E  +Q.      E     W
|-----------10-(10)--------|---------------------------|
|-11--------------------10-|--11-----------------------|
|--------------------------|---------------------------|
|--------------------------|---------------------------|
|--------------------------|---------------------------|
|--------------------------|---------------------------|
|
| Gtr II
|  E   E  E  E   Q    E  E    +E   E  E  E  E  E  E  E
|-----------15--15---------|---------------------------|
|-----15-15----------15----|---------------------------|
|-15--------------------15-|-(15)-12-11-12-------------|
|--------------------------|---------------13p12-------|
|--------------------------|---------------------11-10-|
|--------------------------|---------------------------|
|
| Gtr III
|  E   E  E  E   Q    Q        Q      Q     E  E  Q
|------3-----3-------------|-------------------3-------|
|--------------------------|---------------------------|
|--0------3-----------3----|----------3-----------3----|
|----------------3---------|---1------------0----------|
|--------------------------|---------------------------|
|--------------------------|---------------------------|


   Q        Q       Q       Q         Q       Q    Q          Q
|-----------6-----------------------|------------------------------|
|-------------------8-------5-------|------------------------------|
|-----------------------------------|-6----------------------------|
|-----------------------------------|---------8----5---------------|
|-----------------------------------|-------------------------7----|
|-----------------------------------|------------------------------|
|
|  E   E    E   E   E   E   E   E     E   E   E E  E    E     Q
|-11---9----------------------------|------------------------------|
|----------11---8-------8-----------|------------------------------|
|-------------------9-------6---9---|-----6------------------------|
|-----------------------------------|-7-------5-8-------5----------|
|-----------------------------------|--------------7----------4----|
|-----------------------------------|------------------------------|
|
|  |--3--|  |--3--| |--3--| |--3--|   |--3--|      |---3---|
|  E E   E  E E   E E E   E E E   E   E E   E Q    E  E    E  Q
|-----------3---------------6-------|---------9--------------12----|
|--------2--------2-------5-------5-|-------8-------------11-------|
|----3--------3-------6-------6-----|---9------------12------------|
|--2----------------5---------------|-8-----------11---------------|
|-----------------------------------|------------------------------|
|-----------------------------------|------------------------------|


  Q.    E E E E E   Q   Q   +E  E  Q
|-------8-6-------|-------------8--6---------------|
|-----------8-8-7-|-8------------------------------|
|-----------------|-----7---(7)--------------------|
|-----------------|--------------------------------|
|-5---------------|--------------------------------|
|-----------------|--------------------------------|
|
|                                  |------5------|
| H.          E E   E E E E  Q     S  S  S    S  S
|-----------------|-------5------------------------|
|-----------------|----------8----------10---11-13-|
|-------------5-7-|-8-5-7---------10-12------------|
|-0---------------|--------------------------------|
|-----------------|--------------------------------|
|-----------------|--------------------------------|
|
| E  Q  E E E E E   Q   E E  E  E  E       E
|-------5-3-------|-------5--3---------------------|
|-----------3-----|-----3-------3------------------|
|----3--------5---|----------------3---------------|
|-0-------------0-|-0----------------------0-------|
|-----------------|--------------------------------|
|-----------------|--------------------------------|


              |------5------|
   H          E E   E     E E    E E  E E  H
|-^3---------10-8---6---------|-----------------||
|-^3---------------------10-8-|--7h8-10---------||
|-^2--------------------------|---------8--7----||
|-----------------------------|-----------------||
|-----------------------------|-----------------||
|-----------------------------|-----------------||
|
|  Q.      E  Q        Q         H         H
|-10------------------10------|-----------------||
|---------13-11---------------|-10--------10----||
|-----------------------------|-----------------||
|-----------------------------|-----------------||
|-----------------------------|-----------------||
|-----------------------------|-----------------||
|
|  E  E E  E  E   E    Q         W
|-------3--------------3------|-^2--------------||
|-------------3---------------|-^3--------------||
|-----2----2------2-----------|-^2--------------||
|--0--------------------------|-^0--------------||
|-----------------------------|-----------------||
|-----------------------------|-----------------||


                                    |---3----|  |---3----|             |--3--|
  H          Q     E  T  T  T  T    E  E     E  E  E     E  +Q.        S  S  S
|-----------------------------14-|-15------------------------------------------|
|--------------------------15----|----15---------------------------------------|
|-----------------------15-------|----------15-17-15----17-(17)-------17-17-17-|
|--------------------17----------|---------------------------------------------|
|--------------------------------|---------------------------------------------|
|--------------------------------|---------------------------------------------|
|
| E  E  E  E E  E  E  E             E     E     E     E      E   E  E  E
|---15----15---15----15----------|-------15----------15---------15----15-------|
|------11---------11-------------|-------------13------------------13----------|
|--------------------------------|---------------------------------------------|
|--------------------------------|---------------------------------------------|
|--------------------------------|---------------------------------------------|
|--------------------------------|---------------------------------------------|
|
| E  E  E  E E  E  E  E             E     E     E     E      E   E  E  E
|---10----10---10----10----------|-------11----------11---------11----11-------|
|-------8----------8-------------|--------------8-------------------8----------|
|-0----------0-------------------|--0------------------------0-----------------|
|--------------------------------|---------------------------------------------|
|--------------------------------|---------------------------------------------|
|--------------------------------|---------------------------------------------|


                                                     ~~
   |---3----|
   E  E     E  +E   S  S  E  S  S  E  S S   E  S  S  H          S S  S S
|-----------------------------------------|--------------------------------|
|-15-15----15-(15)------------------------|--------------------------------|
|------------------14-15-15-11-12-12--7-8-|-8------------------------------|
|-----------------------------------------|----8-10-10---------------5-8---|
|-----------------------------------------|---------------------6-8--------|
|-----------------------------------------|--------------------------------|
|
|  E     E      E   E     E  E     E  E     E  E     E  E E  E  E    E
|-------15---------15-------15-------15---|---11-------11---11------11-----|
|--------------11-----------------11------|---------10---------10----------|
|-----------------------------------------|--------------------------------|
|-----------------------------------------|--------------------------------|
|-----------------------------------------|--------------------------------|
|-----------------------------------------|--------------------------------|
|
|  E     E      E   E     E  E     E  E     E  E     E  E E  E  E    E
|-------10---------10-------10-------10---|----8--------8----8-------8-----|
|---------------8------------------8------|----------8----------8----------|
|--0----------------------0---------------|-0-------------0----------------|
|-----------------------------------------|--------------------------------|
|-----------------------------------------|--------------------------------|
|-----------------------------------------|--------------------------------|


     |-----5-----|
  E  T  T  T  T  T  E.     S  S  S  S  S  S  S  S  S
|------------------10--------------------------------|
|---------10-11-13--------13-11-13-11-10----10-11----|
|-7-11-12--------------------------------12----------|
|-------------------------------------------------12-|
|----------------------------------------------------|
|----------------------------------------------------|
|
| E  E              E   E     E     E     E     E
|---10-----------------10----------10----------10----|
|------------------11--------------------11----------|
|----------------------------------------------------|
|----------------------------------------------------|
|----------------------------------------------------|
|----------------------------------------------------|
|
| E  E              E   E     E     E     E     E
|----6------------------6-----------6-----------6----|
|-------------------8---------------------8----------|
|-0---------------------------0----------------------|
|----------------------------------------------------|
|----------------------------------------------------|
|----------------------------------------------------|


   S  S S  S  S S  S S  S S S S  S S S  S    S  S  S  S  S  S  S  S  S  S  S  S  S  S  S  S
|-----------------------------------------|----------------------------------------------------|
|--------------------------------8p7-8-11-|-11-13-11-11-13-10-11----10-------------------------|
|-12--------------------------7-----------|----------------------12----11-12-------------------|
|----12-8-10--7-8---------7-8-------------|----------------------------------12-13-10----10----|
|-----------------10-9-10-----------------|-------------------------------------------13-------|
|-----------------------------------------|----------------------------------------------------|
|
|  E    E     E    E    E   E    E   E       E     E     E     E     E     E     E     E
|-------8----------8--------8--------8----|--------6-----------6-----------6-----------6-------|
|------------10-----------------10--------|--------------8-----------------------8-------------|
|-----------------------------------------|----------------------------------------------------|
|-----------------------------------------|----------------------------------------------------|
|-----------------------------------------|----------------------------------------------------|
|-----------------------------------------|----------------------------------------------------|
|
|  E    E     E    E    E   E    E   E       E     E     E     E     E     E     E     E
|-------5----------5--------5--------5----|--------3-----------3-----------3-----------3-------|
|-------------7------------------7--------|--------------4-----------------------4-------------|
|--0--------------------0-----------------|--0-----------------------0-------------------------|
|-----------------------------------------|----------------------------------------------------|
|-----------------------------------------|----------------------------------------------------|
|-----------------------------------------|----------------------------------------------------|


   a  W                      +W
|-------------------------|------------------------|
|-------------------------|------------------------|
|-------------------------|------------------------|
|-10S12-------------------|-(12)-------------------|
|-------------------------|------------------------|
|-------------------------|------------------------|
|
|           |-3-|
|     E E E S S S E E E E     E  E     E E E E E E
|-----5-6-8-6h8p6-5-------|------------------------|
|-------------------8-7---|------------------------|
|-----------------------8-|---7--5-----------------|
|-------------------------|------------8-7-5-4-5-7-|
|-------------------------|------------------------|
|-------------------------|------------------------|
|
|           |-3-|                |-3-|
|     E E E S S S E E E E     E  S S S E E E E E E
|-------3-5-3h5p3-2-------|------------------------|
|-------------------4-3---|----------------------3-|
|-----------------------5-|---3--2h3p2-------2-3-2-|
|-----0-------------------|------------5-4-5-----4-|
|-------------------------|------------------------|
|-------------------------|------------------------|


   |---3---|                 |--3--|
   E  E    E  E  E  E  S  S  E  E  E
|---------------13-10-----------------|
|---------10-11-------13p11-13-10-----|
|----12---------------------------10--|
|-12----------------------------------|
|-------------------------------------|
|-------------------------------------|
|
|  E    E     Q     Q        Q
|-------------5-----8-------10--------|
|-------------------------------------|
|-------7-----------------------------|
|--8----------------------------------|
|-------------------------------------|
|-------------------------------------|
|
|                            |--3--|
|  E    E     E  E  E  E     E  E  E
|-^3----5-----3-----------------------|
|-^3-------------3--------------------|
|-^3----------------3-----------------|
|-^5-------------------5--------------|
|----------------------------5--------|
|-------------------------------6--5--|


           |-----6-----|  |------6-------|
  H        E  S  S  S  S  S  S  S  S  S  S
|---------13-11-10-------15-13-11----------|
|------------------13-11----------15-13-11-|
|-7----------------------------------------|
|------------------------------------------|
|------------------------------------------|
|------------------------------------------|
|
| Q   H.
|-8----------------------------------------|
|----10------------------------------------|
|------------------------------------------|
|------------------------------------------|
|------------------------------------------|
|------------------------------------------|
|
| H        H
|----------3-------------------------------|
|----------3-------------------------------|
|----------3-------------------------------|
|----------5-------------------------------|
|----------5-------------------------------|
|-3----------------------------------------|


                 |-3--| |-3-|
    S   S  S  S  E  E E E E E +Q     +W
|----------------------------------|--------*|
|--10--11-13-----------------------|--------*|
|------------10-12-----------------|--------*|
|------------------10s7-----7-(7)--|-(7)----*|
|-----------------------8s5--------|--------*|
|----------------------------------|--------*|
|
|  +W                                 W
|----------------------------------|--------*|
|-(10)-----------------------------|--------*|
|----------------------------------|--------*|
|----------------------------------|--------*|
|----------------------------------|--------*|
|----------------------------------|--------*|
|
|  +W                                 W
|--(3)-----------------------------|--------*|
|--(3)-----------------------------|--------*|
|--(3)-----------------------------|--------*|
|--(5)-----------------------------|--------*|
|--(5)-----------------------------|--------*|
|----------------------------------|--------*|



Duration Legend
---------------
W - whole; H - half; Q - quarter; E - 8th; S - 16th; T - 32nd; X - 64th; a - acciaccatura
+ - note tied to previous; . - note dotted; .. - note double dotted
Uncapitalized letters represent notes that are staccato (1/2 duration)
Irregular groupings are notated above the duration line
Duration letters will always appear directly above the note/fret number it represents the
duration for.  Duration letters with no fret number below them represent rests.  Multi-
bar rests are notated in the form Wxn, where n is the number of bars to rest for.  Low
melody durations appear below the staff

Tablature Legend
----------------
 h   - hammer-on
 p   - pull-off
 b   - bend
 pb  - pre-bend
 r   - bend release (if no number after the r, then release immediately)
 /\  - slide into or out of (from/to "nowhere")
 s   - legato slide
 S   - shift slide
 - natural harmonic
[n]  - artificial harmonic
n(n) - tapped harmonic
 ~   - vibrato
 tr  - trill
 T   - tap
 TP  - trem. picking
 PM  - palm muting
\n/  - tremolo bar dip; n = amount to dip
 \n  - tremolo bar down
 n/  - tremolo bar up
/n\  - tremolo bar inverted dip
 =   - hold bend; also acts as connecting device for hammers/pulls
 <> - volume swell (louder/softer)
 x   - on rhythm slash represents muted slash
 o   - on rhythm slash represents single note slash

Misc Legend
-----------
 |  - bar
||  - double bar
||o - repeat start
o|| - repeat end
*|  - double bar (ending)
 :  - bar (freetime)
 $  - Segno
 &  - Coda
Tempo markers -  = BPM(8/16=s8/s16), where s8 = swing 8ths, s16 = swing 16ths


            
            
Suggest correction
Creating personal tab
Creating personal tab
You can edit any tab online and save it as your Personal.

You can edit, replace or remove any tab part or add personal notes – all changes will be seen only by you.

Personal tabs can be accessed anytime from any device, even offline.
Learn more »
Give kudos to tab author, rate the tab!
1 2 3 4 5
comments
print report bad tab
guest
You may want to rate the tab now too:
select rating
Wanna post a correction for this tab? Suggest correction