Oops, an error
Loading. Please wait.

Automatic Doom chords

481 views 1 this week
no commentswrite comment
1 2 3 4 5
3 more votes to show rating
add to favorites
×
Save as Personal and add changes to this tab that will be seen only by you. Learn more ›
×
You can save this tab as Personal to edit and correct it or add notes. All changes will be seen only by you. Learn more »
launch autoscroll
font size
0
reset
transpose
0
reset
simplify chords
display chords
guitar tuner
edit
Autoscroll
slow
fast
+/-
esc
set tempo
stop
Author
Difficulty
Strumming
There is no strumming pattern for this song yet. and get +5 IQ
From the album "Stuff Like That There" (2015)

The song is essentially a simple four-chord progression interspersed with a surf rock guitar riff,
plus a solo thrown in. I tabbed out the main guitar riff, but I'm too lazy to do the whole solo,
but it's pretty easy to figure out. Enjoy!

Main Guitar Riff:
       A            A/G#         F#m          E
e|----|------------|------------|------------|-------------|
B|----|------------|------------|------------|-------------|
G|----|------------|------------|------------|-------------|
D|7-6-|7-6-7-9--6--|------------|------------|---------7-6-|
A|----|------------|4-----------|5--5-5--4--2|4------------|
E|----|------------|------------|------------|-------------|
       A            A/G#         F#m          E             A
     e|------------|------------|------------|-------------|-------------|
     B|------------|------------|------------|-------------|-------------|
     G|------------|------------|------------|-------------|-------------|
     D|7-6-7-9--6--|------------|------------|-------------|-------------|
     A|------------|4-----------|5--4-5--4---|7------------|-------------|
     E|------------|------------|------------|------4------|5------------|

A            A/G#      F#m                     E
 Is there an automatic doom that's waiting for you?
A           A/G#        F#m              E               A
 Can there already be a bullet with your name emblazoned boldly?
        A/G#                F#m           E          A
 As you lead your life with anxious and repetitive behavior
 A/G#      F#m    E
 Automatic doom

A           A/G#           F#m                 E
 Is there a magic floating chalice waiting for you?
A              A/G#            F#m            E                  A
 And would you be depressed if you determined that your quest is over?
         A/G#                F#m           E          A 
 And you lead your life with anxious and repetitive behavior
 A/G#      F#m 
 Automatic doom

[Main Guitar Riff]

A           A/G#           F#m               E
 Is there a crystal cosmic sparrow floating away?
A           A/G#     F#m              E
 Is there a neo-pterodactyl coming to prey?
A           A/G#             F#m                 E              A
 Are you prepared to see the bad things that you say emblazoned boldly
         A/G#            F#m     E
 In gold letters on your tomb?

[Guitar Solo, 4x through chord progression]

[Main Guitar Riff]

            
            
Suggest correction
Creating personal tab
Creating personal tab
You can edit any tab online and save it as your Personal.

You can edit, replace or remove any tab part or add personal notes – all changes will be seen only by you.

Personal tabs can be accessed anytime from any device, even offline.
Learn more »
Give kudos to tab author, rate the tab!
1 2 3 4 5
comments
print report bad tab
guest
You may want to rate the tab now too:
select rating
Wanna post a correction for this tab? Suggest correction