Oops, an error
Loading. Please wait.

Is It True tab

version 1
version 1

Whole song

by Yohanna
19,373 views 1 this week
3 commentsread comments
1 2 3 4 5
x 3
add to favorites
×
Save as Personal and add changes to this tab that will be seen only by you. Learn more ›
×
You can save this tab as Personal to edit and correct it or add notes. All changes will be seen only by you. Learn more »
launch autoscroll
font size
0
reset
how to read this tab
guitar tuner
edit
Autoscroll
slow
fast
+/-
esc
set tempo
stop
Author
-------------------------------------------------------------------------
IS IT TRUE - Yohanna
-------------------------------------------------------------------------
Tabbed by: Kengus

Iceland's entry in the Eurovision Song Contest 2009.

Official website: http://www.myspace.com/yohannamusic

Standard tuning
Capo on first fret!

INTRO
   Bsus2                                     Some chords:
e|-----------------------------|              Bm = x24432  Asus2 = x02200
B|---------2--------------2----|               G = 320033  Bsus2 = x24422
G|-----4-----4--------4-----4--|               D = xx0232  Csus2 = x35533
D|---4---4----------4---4------|               A = x02220   E/G# = 476454
A|-2--------------2------------|           A#dim = x12320  Bsus4 = 779977
E|-----------------------------|             C#m = x46650      B = 799877
                                           
VERSES
   Bm                                 Gadd9
e|-----------------------------------------------------------------------|
B|---------3------------3----------3----------0------------0----------0--|
G|-----4-----4------4-----4----2h4--------2-----2------2-----2----0h2----|
D|---4---4--------4---4------4----------0---0--------0---0------0--------|
A|-2------------2--------------------------------------------------------|
E|------------------------------------3------------3---------------------|
   Bm           Bsus2                 Gadd9
e|-----------------------------------------------------------------------|
B|---------3------------2----------3----------0------------0----------0--|
G|-----4-----4------4-----4----2h4--------2-----2------2-----2----0h2----|
D|---4---4--------4---4------4----------0---0--------0---0------0--------|
A|-2------------2--------------------------------------------------------|
E|------------------------------------3------------3---------------------|

PRE-CHORUS
   Asus2    Gadd9    Asus2    Em7    F#7
e|-------0-----------------0--0-000--2---|
B|----------------3-----------3-333--2---|
G|-----2--------2--------2----0-000--3---|
D|---2--------0--------2------2-222--2---|
A|-0-----------------0--------2-222--4---|
E|----------3-----------------0-000--2---|

VERSE1
    Bm
You say you really know me, you’re not afraid to show me
       Gadd9
What is in your eyes
   Bm                         Bsus2
So tell me about the rumours, are they only rumours?
        Gadd9
Are they only lies?

PRE-CHORUS
Asus2                   Gadd9         Asus2                   Em7 F#7
       Falling out of a perfect dream,      coming out of the blu---e

CHORUS (strum the chords)
      Bm          G           D         A
Is it true? Is it over? Did I throw it away?
       Bm           G                       D              A
Was it you? Did you  tell me you would never leave me this way?

[originally posted on www.ultimate-guitar.com]

VERSE2
Bm
If you really knew me, you couldn’t do this to me
         Gadd9
You would be my friend
   Bm                  Bsus2
If one of us is lying, there’s no use in trying
       Gadd9
No need to pretend

PRE-CHORUS
Asus2                   Gadd9         Asus2                   Em7 F#7
       Falling out of a perfect dream,      coming out of the blu---e

CHORUS (strum the chords)
      Bm          G           D         A     A#dim
Is it true? Is it over? Did I throw it away?
      Bm            G                        D              A
Was it  you? Did you  tell me you would never leave me this way?

CHORUS (modulation)
      C#m         Asus2       E         Bsus2
Is it true? Is it over? Did I throw it away?
     C#m           Asus2                   E              Bsus2  Csus2
Was it you? Did you tell me you would never leave me this way?
      C#m         Asus2            E/G#  E       Bsus2   Csus2
Is it real? Did I dream it? Will I wake  from this pain
      C#m        Asus2            E          Bsus4  B
Is it true? Is it over? Baby did I throw it away?
      C#m
Is it true?

=========================================================================
Comment, rate, appreciate!

            
            
Suggest correction
Creating personal tab
Creating personal tab
You can edit any tab online and save it as your Personal.

You can edit, replace or remove any tab part or add personal notes – all changes will be seen only by you.

Personal tabs can be accessed anytime from any device, even offline.
Learn more »
Give kudos to tab author, rate the tab!
1 2 3 4 5
comments
print report bad tab
3 comments total.
0 reply
mcfly mad 10 May 22, 2009 11:14 AM

i think its in the wrong key
i might be wrong tho
otherwise good tab and the chords are really helpful
thank you!

0 reply
Kengus 4,583 May 23, 2009 05:05 AM

Thanks. Remember capo on 1st fret though... so everything is relative to capo.

0 reply
LyricalScave 82 May 24, 2009 02:29 AM

Sounds good! Thanks a lot!

guest
You may want to rate the tab now too:
select rating
Wanna post a correction for this tab? Suggest correction