Oops, an error
Loading. Please wait.

Jealous Minds Think Alike bass

version 3
version 3

Whole song

Interactive

417 views 1 this week
no commentswrite comment
1 2 3 4 5
3 more votes to show rating
add to favorites
×
Save as Personal and add changes to this tab that will be seen only by you. Learn more ›
×
You can save this tab as Personal to edit and correct it or add notes. All changes will be seen only by you. Learn more »
launch autoscroll
font size
0
reset
guitar tuner
edit
Autoscroll
slow
fast
+/-
esc
set tempo
stop
-----------------------------------------------------------------------
               Jealous Minds Think Alike - You Me At Six
-----------------------------------------------------------------------

Tabbed By : DomH18

Really annoyed me how every bass tab for this song hasn't figured out its in Drop D tuning,
so here we go, a proper 100% correct tablature for your bass guitar for this sick YM@6 tune.
If there are errors you have permission to hunt me down and spank me. Hard. 

Tuning: Drop D

Intro

G|--------------------------------------------------------------------------|
D|--------------------------------------------------------------------------|
A|--------------------------------------------------------------------------|
D|----99999999444444445555555577777777---(x2)---9---------------------------|

Verse 1 (Come in on 'But I am not what you are')

G|--------------------------------------------------------------------------|
D|--------------------------------------------------------------------------|
A|--------------------------------------------------------------------------|
D|----99999999999999992222222255555555---(x2)-------------------------------|

Pre-Chorus

G|--------------------------------------------------------------------------|
D|--------------------------------------------------------------------------|
A|--------------------------------------------------------------------------|
D|----99-44-55-77--(x4)----2222555522227777---------------------------------|

Chorus

G|--------------------------------------------------------------------------|
D|--------------------------------------------------------------------------|
A|--------------------------------------------------------------------------|
D|----0-(x8)----7-(x8)----9-(x8)----5-(x8)----------------------------------|

Intro (x1) Only played once through
Verse (x1) Slight variation in strumming pattern here, listen carefully

G|--------------------------------------------------------------------------|
D|--------------------------------------------------------------------------|
A|--------------------------------------------------------------------------|
D|----2----5----2----7777---------------------------------------------------|

Chorus (x1)

Bridge

G|--------------------------------------------------------------------------|
D|--------------------------------------------------------------------------|
A|----------------------12s not 1+2-----------------------------------------|
D|----7-99-97-7-99-97-000012121212---7-99-97-7-99-97-77777777--(x2)---------|

G|--------|
D|--------|
A|--------|
D|---0----|

Chorus (x3)

End on

G|--------|
D|--------|
A|--------|
D|---0----|


| /  slide up
| \  slide down
| h  hammer-on
| p  pull-off
| ~  vibrato
| +  harmonic
| x  Mute note
===============================================================================

            
            
Suggest correction
Creating personal tab
Creating personal tab
You can edit any tab online and save it as your Personal.

You can edit, replace or remove any tab part or add personal notes – all changes will be seen only by you.

Personal tabs can be accessed anytime from any device, even offline.
Learn more »
Give kudos to tab author, rate the tab!
1 2 3 4 5
comments
print report bad tab
guest
You may want to rate the tab now too:
select rating
Wanna post a correction for this tab? Suggest correction